  0
SECTION
  2
HEADER
  9
$ACADVER
  1
AC1015
  9
$ACADMAINTVER
 70
     6
  9
$DWGCODEPAGE
  3
ANSI_1254
  9
$INSBASE
 10
0.0
 20
0.0
 30
0.0
  9
$EXTMIN
 10
0.0
 20
0.0
 30
0.0
  9
$EXTMAX
 10
279.4
 20
215.9
 30
0.0
  9
$LIMMIN
 10
0.0
 20
0.0
  9
$LIMMAX
 10
279.4
 20
215.9
  9
$ORTHOMODE
 70
     0
  9
$REGENMODE
 70
     1
  9
$FILLMODE
 70
     1
  9
$QTEXTMODE
 70
     0
  9
$MIRRTEXT
 70
     1
  9
$LTSCALE
 40
1.0
  9
$ATTMODE
 70
     1
  9
$TEXTSIZE
 40
3.5
  9
$TRACEWID
 40
1.0
  9
$TEXTSTYLE
  7
Standard
  9
$CLAYER
  8
0
  9
$CELTYPE
  6
ByLayer
  9
$CECOLOR
 62
   256
  9
$CELTSCALE
 40
1.0
  9
$DISPSILH
 70
     0
  9
$DIMSCALE
 40
1.0
  9
$DIMASZ
 40
3.5
  9
$DIMEXO
 40
1.0
  9
$DIMDLI
 40
3.75
  9
$DIMRND
 40
0.0
  9
$DIMDLE
 40
0.0
  9
$DIMEXE
 40
1.0
  9
$DIMTP
 40
0.0
  9
$DIMTM
 40
0.0
  9
$DIMTXT
 40
3.5
  9
$DIMCEN
 40
2.5
  9
$DIMTSZ
 40
0.0
  9
$DIMTOL
 70
     0
  9
$DIMLIM
 70
     0
  9
$DIMTIH
 70
     1
  9
$DIMTOH
 70
     1
  9
$DIMSE1
 70
     0
  9
$DIMSE2
 70
     0
  9
$DIMTAD
 70
     1
  9
$DIMZIN
 70
     0
  9
$DIMBLK
  1

  9
$DIMASO
 70
     1
  9
$DIMSHO
 70
     1
  9
$DIMPOST
  1

  9
$DIMAPOST
  1

  9
$DIMALT
 70
     0
  9
$DIMALTD
 70
     3
  9
$DIMALTF
 40
0.0393700787
  9
$DIMLFAC
 40
1.0
  9
$DIMTOFL
 70
     1
  9
$DIMTVP
 40
0.0
  9
$DIMTIX
 70
     0
  9
$DIMSOXD
 70
     0
  9
$DIMSAH
 70
     0
  9
$DIMBLK1
  1

  9
$DIMBLK2
  1

  9
$DIMSTYLE
  2
ISO-25
  9
$DIMCLRD
 70
     0
  9
$DIMCLRE
 70
     0
  9
$DIMCLRT
 70
     0
  9
$DIMTFAC
 40
1.0
  9
$DIMGAP
 40
1.524
  9
$DIMJUST
 70
     0
  9
$DIMSD1
 70
     0
  9
$DIMSD2
 70
     0
  9
$DIMTOLJ
 70
     0
  9
$DIMTZIN
 70
     0
  9
$DIMALTZ
 70
     0
  9
$DIMALTTZ
 70
     0
  9
$DIMUPT
 70
     0
  9
$DIMDEC
 70
     2
  9
$DIMTDEC
 70
     2
  9
$DIMALTU
 70
     2
  9
$DIMALTTD
 70
     3
  9
$DIMTXSTY
  7
Standard
  9
$DIMAUNIT
 70
     0
  9
$DIMADEC
 70
     2
  9
$DIMALTRND
 40
0.0
  9
$DIMAZIN
 70
     0
  9
$DIMDSEP
 70
    44
  9
$DIMATFIT
 70
     3
  9
$DIMFRAC
 70
     0
  9
$DIMLDRBLK
  1

  9
$DIMLUNIT
 70
     2
  9
$DIMLWD
 70
    -2
  9
$DIMLWE
 70
    -2
  9
$DIMTMOVE
 70
     0
  9
$LUNITS
 70
     2
  9
$LUPREC
 70
     2
  9
$SKETCHINC
 40
1.0
  9
$FILLETRAD
 40
10.0
  9
$AUNITS
 70
     0
  9
$AUPREC
 70
     2
  9
$MENU
  1
.
  9
$ELEVATION
 40
0.0
  9
$PELEVATION
 40
0.0
  9
$THICKNESS
 40
0.0
  9
$LIMCHECK
 70
     0
  9
$CHAMFERA
 40
0.0
  9
$CHAMFERB
 40
0.0
  9
$CHAMFERC
 40
0.0
  9
$CHAMFERD
 40
0.0
  9
$SKPOLY
 70
     0
  9
$TDCREATE
 40
2459741.603213739
  9
$TDUCREATE
 40
2459741.478213739
  9
$TDUPDATE
 40
2459741.603213924
  9
$TDUUPDATE
 40
2459741.478213924
  9
$TDINDWG
 40
0.0000000116
  9
$TDUSRTIMER
 40
0.0000000116
  9
$USRTIMER
 70
     1
  9
$ANGBASE
 50
0.0
  9
$ANGDIR
 70
     0
  9
$PDMODE
 70
     0
  9
$PDSIZE
 40
-1.0
  9
$PLINEWID
 40
0.0
  9
$SPLFRAME
 70
     0
  9
$SPLINETYPE
 70
     6
  9
$SPLINESEGS
 70
     8
  9
$HANDSEED
  5
130
  9
$SURFTAB1
 70
     6
  9
$SURFTAB2
 70
     6
  9
$SURFTYPE
 70
     6
  9
$SURFU
 70
     6
  9
$SURFV
 70
     6
  9
$UCSBASE
  2

  9
$UCSNAME
  2

  9
$UCSORG
 10
0.0
 20
0.0
 30
0.0
  9
$UCSXDIR
 10
1.0
 20
0.0
 30
0.0
  9
$UCSYDIR
 10
0.0
 20
1.0
 30
0.0
  9
$UCSORTHOREF
  2

  9
$UCSORTHOVIEW
 70
     0
  9
$UCSORGTOP
 10
0.0
 20
0.0
 30
0.0
  9
$UCSORGBOTTOM
 10
0.0
 20
0.0
 30
0.0
  9
$UCSORGLEFT
 10
0.0
 20
0.0
 30
0.0
  9
$UCSORGRIGHT
 10
0.0
 20
0.0
 30
0.0
  9
$UCSORGFRONT
 10
0.0
 20
0.0
 30
0.0
  9
$UCSORGBACK
 10
0.0
 20
0.0
 30
0.0
  9
$PUCSBASE
  2

  9
$PUCSNAME
  2

  9
$PUCSORG
 10
0.0
 20
0.0
 30
0.0
  9
$PUCSXDIR
 10
1.0
 20
0.0
 30
0.0
  9
$PUCSYDIR
 10
0.0
 20
1.0
 30
0.0
  9
$PUCSORTHOREF
  2

  9
$PUCSORTHOVIEW
 70
     0
  9
$PUCSORGTOP
 10
0.0
 20
0.0
 30
0.0
  9
$PUCSORGBOTTOM
 10
0.0
 20
0.0
 30
0.0
  9
$PUCSORGLEFT
 10
0.0
 20
0.0
 30
0.0
  9
$PUCSORGRIGHT
 10
0.0
 20
0.0
 30
0.0
  9
$PUCSORGFRONT
 10
0.0
 20
0.0
 30
0.0
  9
$PUCSORGBACK
 10
0.0
 20
0.0
 30
0.0
  9
$USERI1
 70
     0
  9
$USERI2
 70
     0
  9
$USERI3
 70
     0
  9
$USERI4
 70
     0
  9
$USERI5
 70
     0
  9
$USERR1
 40
0.0
  9
$USERR2
 40
0.0
  9
$USERR3
 40
0.0
  9
$USERR4
 40
0.0
  9
$USERR5
 40
0.0
  9
$WORLDVIEW
 70
     1
  9
$SHADEDGE
 70
     3
  9
$SHADEDIF
 70
    70
  9
$TILEMODE
 70
     1
  9
$MAXACTVP
 70
    64
  9
$PINSBASE
 10
0.0
 20
0.0
 30
0.0
  9
$PLIMCHECK
 70
     0
  9
$PEXTMIN
 10
1.0000000000E+20
 20
1.0000000000E+20
 30
1.0000000000E+20
  9
$PEXTMAX
 10
-1.0000000000E+20
 20
-1.0000000000E+20
 30
-1.0000000000E+20
  9
$PLIMMIN
 10
0.0
 20
0.0
  9
$PLIMMAX
 10
420.0
 20
297.0
  9
$UNITMODE
 70
     0
  9
$VISRETAIN
 70
     1
  9
$PLINEGEN
 70
     0
  9
$PSLTSCALE
 70
     1
  9
$TREEDEPTH
 70
  3020
  9
$CMLSTYLE
  2
Standard
  9
$CMLJUST
 70
     0
  9
$CMLSCALE
 40
20.0
  9
$PROXYGRAPHICS
 70
     1
  9
$MEASUREMENT
 70
     1
  9
$CELWEIGHT
370
    -1
  9
$ENDCAPS
280
     0
  9
$JOINSTYLE
280
     0
  9
$LWDISPLAY
290
     1
  9
$INSUNITS
 70
     4
  9
$HYPERLINKBASE
  1

  9
$STYLESHEET
  1

  9
$XEDIT
290
     1
  9
$CEPSNTYPE
380
     0
  9
$PSTYLEMODE
290
     1
  9
$FINGERPRINTGUID
  2
{63e09757-ea8e-47c2-99e3-801680d80901}
  9
$VERSIONGUID
  2
{FAEB1C32-E019-11D5-929B-00C0DF256EC4}
  9
$EXTNAMES
290
     1
  9
$PSVPSCALE
 40
0.0
  9
$OLESTARTUP
290
     0
  0
ENDSEC
  0
SECTION
  2
CLASSES
  0
CLASS
  1
ACDBDICTIONARYWDFLT
  2
AcDbDictionaryWithDefault
  3
ObjectDBX Classes
 90
        0
280
     0
281
     0
  0
CLASS
  1
VISUALSTYLE
  2
AcDbVisualStyle
  3
ObjectDBX Classes
 90
     4095
280
     0
281
     0
  0
CLASS
  1
MATERIAL
  2
AcDbMaterial
  3
ObjectDBX Classes
 90
     1153
280
     0
281
     0
  0
CLASS
  1
SCALE
  2
AcDbScale
  3
ObjectDBX Classes
 90
     1153
280
     0
281
     0
  0
CLASS
  1
TABLESTYLE
  2
AcDbTableStyle
  3
ObjectDBX Classes
 90
     4095
280
     0
281
     0
  0
CLASS
  1
MLEADERSTYLE
  2
AcDbMLeaderStyle
  3
ACDB_MLEADERSTYLE_CLASS
 90
     4095
280
     0
281
     0
  0
CLASS
  1
SUN
  2
AcDbSun
  3
SCENEOE
 90
     1153
280
     0
281
     0
  0
CLASS
  1
ACDBPLACEHOLDER
  2
AcDbPlaceHolder
  3
ObjectDBX Classes
 90
        0
280
     0
281
     0
  0
CLASS
  1
LAYOUT
  2
AcDbLayout
  3
ObjectDBX Classes
 90
        0
280
     0
281
     0
  0
ENDSEC
  0
SECTION
  2
TABLES
  0
TABLE
  2
VPORT
  5
8
330
0
100
AcDbSymbolTable
 70
     1
  0
VPORT
  5
29
330
8
100
AcDbSymbolTableRecord
100
AcDbViewportTableRecord
  2
*Active
 70
     0
 10
0.0
 20
0.0
 11
1.0
 21
1.0
 12
139.7
 22
107.95
 13
0.0
 23
0.0
 14
10.0
 24
10.0
 15
10.0
 25
10.0
 16
0.0
 26
0.0
 36
1.0
 17
0.0
 27
0.0
 37
0.0
 40
215.9
 41
1.2941176471
 42
50.0
 43
0.0
 44
0.0
 50
0.0
 51
0.0
 71
     0
 72
  2000
 73
     1
 74
     3
 75
     0
 76
     0
 77
     0
 78
     0
281
     0
 65
     1
110
0.0
120
0.0
130
0.0
111
1.0
121
0.0
131
0.0
112
0.0
122
1.0
132
0.0
 79
     0
146
0.0
  0
ENDTAB
  0
TABLE
  2
LTYPE
  5
5
330
0
100
AcDbSymbolTable
 70
     6
  0
LTYPE
  5
14
330
5
100
AcDbSymbolTableRecord
100
AcDbLinetypeTableRecord
  2
ByBlock
 70
     0
  3

 72
    65
 73
     0
 40
0.0
  0
LTYPE
  5
15
330
5
100
AcDbSymbolTableRecord
100
AcDbLinetypeTableRecord
  2
ByLayer
 70
     0
  3

 72
    65
 73
     0
 40
0.0
  0
LTYPE
  5
16
330
5
100
AcDbSymbolTableRecord
100
AcDbLinetypeTableRecord
  2
Continuous
 70
     0
  3
Solid line
 72
    65
 73
     0
 40
0.0
  0
LTYPE
  5
6E
330
5
100
AcDbSymbolTableRecord
100
AcDbLinetypeTableRecord
  2
HIDDEN
 70
     0
  3
Hidden __ __ __ __ __ __ __ __ __ __ __ __ __ __
 72
    65
 73
     2
 40
1.905
 49
1.27
 74
     0
 49
-0.635
 74
     0
  0
LTYPE
  5
6F
330
5
100
AcDbSymbolTableRecord
100
AcDbLinetypeTableRecord
  2
PHANTOM
 70
     0
  3
Phantom ______  __  __  ______  __  __  ______
 72
    65
 73
     6
 40
12.7
 49
6.35
 74
     0
 49
-1.27
 74
     0
 49
1.27
 74
     0
 49
-1.27
 74
     0
 49
1.27
 74
     0
 49
-1.27
 74
     0
  0
LTYPE
  5
70
330
5
100
AcDbSymbolTableRecord
100
AcDbLinetypeTableRecord
  2
CENTER
 70
     0
  3
Center ____ _ ____ _ ____ _ ____ _ ____ _ ____
 72
    65
 73
     4
 40
10.16
 49
6.35
 74
     0
 49
-1.27
 74
     0
 49
1.27
 74
     0
 49
-1.27
 74
     0
  0
LTYPE
  5
71
330
5
100
AcDbSymbolTableRecord
100
AcDbLinetypeTableRecord
  2
CENTERX2
 70
     0
  3
Center (2x) ________  __  ________  __  _____
 72
    65
 73
     4
 40
20.32
 49
12.7
 74
     0
 49
-2.54
 74
     0
 49
2.54
 74
     0
 49
-2.54
 74
     0
  0
LTYPE
  5
72
330
5
100
AcDbSymbolTableRecord
100
AcDbLinetypeTableRecord
  2
DOT2
 70
     0
  3
Dot (.5x) ........................................
 72
    65
 73
     2
 40
0.635
 49
0.0
 74
     0
 49
-0.635
 74
     0
  0
ENDTAB
  0
TABLE
  2
LAYER
  5
2
330
0
100
AcDbSymbolTable
 70
    17
  0
LAYER
  5
10
330
2
100
AcDbSymbolTableRecord
100
AcDbLayerTableRecord
  2
0
 70
     0
 62
     7
  6
Continuous
370
    -3
390
F
  0
LAYER
  5
73
330
2
100
AcDbSymbolTableRecord
100
AcDbLayerTableRecord
  2
FORMAT
 70
     0
 62
     7
  6
Continuous
370
    -3
390
F
  0
LAYER
  5
74
330
2
100
AcDbSymbolTableRecord
100
AcDbLayerTableRecord
  2
YARDIMCI_GEOMETRI
 70
     0
 62
    -6
  6
Continuous
290
     0
370
    -3
390
F
  0
LAYER
  5
75
330
2
100
AcDbSymbolTableRecord
100
AcDbLayerTableRecord
  2
SAYFA_CERCEVESI
 70
     0
 62
     7
  6
Continuous
370
    25
390
F
  0
LAYER
  5
76
330
2
100
AcDbSymbolTableRecord
100
AcDbLayerTableRecord
  2
ANTET
 70
     0
 62
     7
  6
Continuous
370
    -3
390
F
  0
LAYER
  5
77
330
2
100
AcDbSymbolTableRecord
100
AcDbLayerTableRecord
  2
OLCU
 70
     0
 62
   150
  6
Continuous
370
    -3
390
F
  0
LAYER
  5
78
330
2
100
AcDbSymbolTableRecord
100
AcDbLayerTableRecord
  2
METIN
 70
     0
 62
    96
  6
Continuous
370
    -3
390
F
  0
LAYER
  5
79
330
2
100
AcDbSymbolTableRecord
100
AcDbLayerTableRecord
  2
BALON
 70
     0
 62
     5
  6
Continuous
370
    -3
390
F
  0
LAYER
  5
7A
330
2
100
AcDbSymbolTableRecord
100
AcDbLayerTableRecord
  2
VURGU
 70
     0
 62
     7
  6
Continuous
370
    -3
390
F
  0
LAYER
  5
7B
330
2
100
AcDbSymbolTableRecord
100
AcDbLayerTableRecord
  2
SILIK
 70
     0
 62
     7
  6
Continuous
370
    -3
390
F
  0
LAYER
  5
7C
330
2
100
AcDbSymbolTableRecord
100
AcDbLayerTableRecord
  2
MODEL
 70
     0
 62
     7
  6
Continuous
370
    -3
390
F
  0
LAYER
  5
7D
330
2
100
AcDbSymbolTableRecord
100
AcDbLayerTableRecord
  2
DETAYLANDıRMA
 70
     0
 62
   190
  6
Continuous
370
    -3
390
F
  0
LAYER
  5
7E
330
2
100
AcDbSymbolTableRecord
100
AcDbLayerTableRecord
  2
TOLERANS
 70
     0
 62
   230
  6
Continuous
370
    -3
390
F
  0
LAYER
  5
7F
330
2
100
AcDbSymbolTableRecord
100
AcDbLayerTableRecord
  2
MERKEZ_CIZGILERI
 70
     0
 62
    30
  6
Continuous
370
    -3
390
F
  0
LAYER
  5
80
330
2
100
AcDbSymbolTableRecord
100
AcDbLayerTableRecord
  2
KESIT-DETAY_CIZGILERI
 70
     0
 62
     7
  6
Continuous
370
    -3
390
F
  0
LAYER
  5
81
330
2
100
AcDbSymbolTableRecord
100
AcDbLayerTableRecord
  2
\U+041E\U+0421\U+0415\U+0412\U+042B\U+0415
 70
     0
 62
     7
  6
Continuous
370
    -3
390
F
  0
LAYER
  5
82
330
2
100
AcDbSymbolTableRecord
100
AcDbLayerTableRecord
  2
\U+0412\U+041E\U+0414\U+042F\U+041D\U+042B\U+0415_\U+0417\U+041D\U+0410\U+041A\U+0418
 70
     0
 62
    11
  6
Continuous
370
    -3
390
F
  0
ENDTAB
  0
TABLE
  2
STYLE
  5
3
330
0
100
AcDbSymbolTable
 70
     1
  0
STYLE
  5
11
330
3
100
AcDbSymbolTableRecord
100
AcDbTextStyleTableRecord
  2
Standard
 70
     0
 40
0.0
 41
1.0
 50
0.0
 71
     0
 42
3.5
  3
txt
  4

  0
ENDTAB
  0
TABLE
  2
VIEW
  5
6
330
0
100
AcDbSymbolTable
 70
     0
  0
ENDTAB
  0
TABLE
  2
UCS
  5
7
330
0
100
AcDbSymbolTable
 70
     0
  0
ENDTAB
  0
TABLE
  2
APPID
  5
9
330
0
100
AcDbSymbolTable
 70
     1
  0
APPID
  5
12
330
9
100
AcDbSymbolTableRecord
100
AcDbRegAppTableRecord
  2
ACAD
 70
     0
  0
ENDTAB
  0
TABLE
  2
DIMSTYLE
  5
A
330
0
100
AcDbSymbolTable
 70
     1
100
AcDbDimStyleTable
  0
DIMSTYLE
105
27
330
A
100
AcDbSymbolTableRecord
100
AcDbDimStyleTableRecord
  2
ISO-25
 70
     0
 41
2.5
 42
0.625
 43
3.75
 44
1.25
 73
     0
 74
     0
 77
     1
 78
     8
140
2.5
141
2.5
143
0.0393700787
147
0.625
171
     3
172
     1
178
     0
271
     2
272
     2
274
     3
278
    44
283
     0
284
     8
340
11
  0
ENDTAB
  0
TABLE
  2
BLOCK_RECORD
  5
1
330
0
100
AcDbSymbolTable
 70
     5
  0
BLOCK_RECORD
  5
1F
330
1
100
AcDbSymbolTableRecord
100
AcDbBlockTableRecord
  2
*Model_Space
340
22
  0
BLOCK_RECORD
  5
1B
330
1
100
AcDbSymbolTableRecord
100
AcDbBlockTableRecord
  2
*Paper_Space
340
1E
  0
BLOCK_RECORD
  5
23
330
1
100
AcDbSymbolTableRecord
100
AcDbBlockTableRecord
  2
*Paper_Space0
340
26
  0
BLOCK_RECORD
  5
AB
330
1
100
AcDbSymbolTableRecord
100
AcDbBlockTableRecord
  2
SW_CENTERMARKSYMBOL_0
340
0
102
{BLKREFS
331
B6
102
}
  0
BLOCK_RECORD
  5
C9
330
1
100
AcDbSymbolTableRecord
100
AcDbBlockTableRecord
  2
SW_CENTERMARKSYMBOL_1
340
0
102
{BLKREFS
331
D4
102
}
  0
BLOCK_RECORD
  5
ED
330
1
100
AcDbSymbolTableRecord
100
AcDbBlockTableRecord
  2
SW_CENTERMARKSYMBOL_2
340
0
102
{BLKREFS
331
F8
102
}
  0
BLOCK_RECORD
  5
10B
330
1
100
AcDbSymbolTableRecord
100
AcDbBlockTableRecord
  2
SW_CENTERMARKSYMBOL_3
340
0
102
{BLKREFS
331
116
102
}
  0
ENDTAB
  0
ENDSEC
  0
SECTION
  2
BLOCKS
  0
BLOCK
  5
20
330
1F
100
AcDbEntity
  8
0
100
AcDbBlockBegin
  2
*Model_Space
 70
     0
 10
0.0
 20
0.0
 30
0.0
  3
*Model_Space
  1

  0
ENDBLK
  5
21
330
1F
100
AcDbEntity
  8
0
100
AcDbBlockEnd
  0
BLOCK
  5
1C
330
1B
100
AcDbEntity
 67
     1
  8
0
100
AcDbBlockBegin
  2
*Paper_Space
 70
     0
 10
0.0
 20
0.0
 30
0.0
  3
*Paper_Space
  1

  0
ENDBLK
  5
1D
330
1B
100
AcDbEntity
 67
     1
  8
0
100
AcDbBlockEnd
  0
BLOCK
  5
24
330
23
100
AcDbEntity
  8
0
100
AcDbBlockBegin
  2
*Paper_Space0
 70
     0
 10
0.0
 20
0.0
 30
0.0
  3
*Paper_Space0
  1

  0
ENDBLK
  5
25
330
23
100
AcDbEntity
  8
0
100
AcDbBlockEnd
  0
BLOCK
  5
AC
330
AB
100
AcDbEntity
  8
0
100
AcDbBlockBegin
  2
SW_CENTERMARKSYMBOL_0
 70
     0
 10
0.0
 20
0.0
 30
0.0
  3
SW_CENTERMARKSYMBOL_0
  1

  0
LINE
  5
AE
330
AB
100
AcDbEntity
  8
FORMAT
 62
     0
100
AcDbLine
 10
0.0
 20
0.0
 30
0.0
 11
0.0
 21
2.5
 31
0.0
  0
LINE
  5
AF
330
AB
100
AcDbEntity
  8
FORMAT
 62
     0
100
AcDbLine
 10
0.0
 20
0.0
 30
0.0
 11
-2.5
 21
0.0
 31
0.0
  0
LINE
  5
B0
330
AB
100
AcDbEntity
  8
FORMAT
 62
     0
100
AcDbLine
 10
0.0
 20
0.0
 30
0.0
 11
0.0
 21
-2.5
 31
0.0
  0
LINE
  5
B1
330
AB
100
AcDbEntity
  8
FORMAT
 62
     0
100
AcDbLine
 10
0.0
 20
0.0
 30
0.0
 11
2.5
 21
0.0
 31
0.0
  0
LINE
  5
B2
330
AB
100
AcDbEntity
  8
FORMAT
 62
     0
100
AcDbLine
 10
0.0
 20
5.0
 30
0.0
 11
0.0
 21
113.5
 31
0.0
  0
LINE
  5
B3
330
AB
100
AcDbEntity
  8
FORMAT
 62
     0
100
AcDbLine
 10
-5.0
 20
0.0
 30
0.0
 11
-113.5
 21
0.0
 31
0.0
  0
LINE
  5
B4
330
AB
100
AcDbEntity
  8
FORMAT
 62
     0
100
AcDbLine
 10
0.0
 20
-5.0
 30
0.0
 11
0.0
 21
-113.5
 31
0.0
  0
LINE
  5
B5
330
AB
100
AcDbEntity
  8
FORMAT
 62
     0
100
AcDbLine
 10
5.0
 20
0.0
 30
0.0
 11
113.5
 21
0.0
 31
0.0
  0
ENDBLK
  5
AD
330
AB
100
AcDbEntity
  8
0
100
AcDbBlockEnd
  0
BLOCK
  5
CA
330
C9
100
AcDbEntity
  8
0
100
AcDbBlockBegin
  2
SW_CENTERMARKSYMBOL_1
 70
     0
 10
0.0
 20
0.0
 30
0.0
  3
SW_CENTERMARKSYMBOL_1
  1

  0
LINE
  5
CC
330
C9
100
AcDbEntity
  8
FORMAT
 62
     0
100
AcDbLine
 10
0.0
 20
0.0
 30
0.0
 11
0.0
 21
2.5
 31
0.0
  0
LINE
  5
CD
330
C9
100
AcDbEntity
  8
FORMAT
 62
     0
100
AcDbLine
 10
0.0
 20
0.0
 30
0.0
 11
-2.5
 21
0.0
 31
0.0
  0
LINE
  5
CE
330
C9
100
AcDbEntity
  8
FORMAT
 62
     0
100
AcDbLine
 10
0.0
 20
0.0
 30
0.0
 11
0.0
 21
-2.5
 31
0.0
  0
LINE
  5
CF
330
C9
100
AcDbEntity
  8
FORMAT
 62
     0
100
AcDbLine
 10
0.0
 20
0.0
 30
0.0
 11
2.5
 21
0.0
 31
0.0
  0
LINE
  5
D0
330
C9
100
AcDbEntity
  8
FORMAT
 62
     0
100
AcDbLine
 10
0.0
 20
5.0
 30
0.0
 11
0.0
 21
113.5
 31
0.0
  0
LINE
  5
D1
330
C9
100
AcDbEntity
  8
FORMAT
 62
     0
100
AcDbLine
 10
-5.0
 20
0.0
 30
0.0
 11
-113.5
 21
0.0
 31
0.0
  0
LINE
  5
D2
330
C9
100
AcDbEntity
  8
FORMAT
 62
     0
100
AcDbLine
 10
0.0
 20
-5.0
 30
0.0
 11
0.0
 21
-113.5
 31
0.0
  0
LINE
  5
D3
330
C9
100
AcDbEntity
  8
FORMAT
 62
     0
100
AcDbLine
 10
5.0
 20
0.0
 30
0.0
 11
113.5
 21
0.0
 31
0.0
  0
ENDBLK
  5
CB
330
C9
100
AcDbEntity
  8
0
100
AcDbBlockEnd
  0
BLOCK
  5
EE
330
ED
100
AcDbEntity
  8
0
100
AcDbBlockBegin
  2
SW_CENTERMARKSYMBOL_2
 70
     0
 10
0.0
 20
0.0
 30
0.0
  3
SW_CENTERMARKSYMBOL_2
  1

  0
LINE
  5
F0
330
ED
100
AcDbEntity
  8
FORMAT
 62
     0
100
AcDbLine
 10
0.0
 20
0.0
 30
0.0
 11
0.0
 21
2.5
 31
0.0
  0
LINE
  5
F1
330
ED
100
AcDbEntity
  8
FORMAT
 62
     0
100
AcDbLine
 10
0.0
 20
0.0
 30
0.0
 11
-2.5
 21
0.0
 31
0.0
  0
LINE
  5
F2
330
ED
100
AcDbEntity
  8
FORMAT
 62
     0
100
AcDbLine
 10
0.0
 20
0.0
 30
0.0
 11
0.0
 21
-2.5
 31
0.0
  0
LINE
  5
F3
330
ED
100
AcDbEntity
  8
FORMAT
 62
     0
100
AcDbLine
 10
0.0
 20
0.0
 30
0.0
 11
2.5
 21
0.0
 31
0.0
  0
LINE
  5
F4
330
ED
100
AcDbEntity
  8
FORMAT
 62
     0
100
AcDbLine
 10
0.0
 20
5.0
 30
0.0
 11
0.0
 21
113.5
 31
0.0
  0
LINE
  5
F5
330
ED
100
AcDbEntity
  8
FORMAT
 62
     0
100
AcDbLine
 10
-5.0
 20
0.0
 30
0.0
 11
-113.5
 21
0.0
 31
0.0
  0
LINE
  5
F6
330
ED
100
AcDbEntity
  8
FORMAT
 62
     0
100
AcDbLine
 10
0.0
 20
-5.0
 30
0.0
 11
0.0
 21
-113.5
 31
0.0
  0
LINE
  5
F7
330
ED
100
AcDbEntity
  8
FORMAT
 62
     0
100
AcDbLine
 10
5.0
 20
0.0
 30
0.0
 11
113.5
 21
0.0
 31
0.0
  0
ENDBLK
  5
EF
330
ED
100
AcDbEntity
  8
0
100
AcDbBlockEnd
  0
BLOCK
  5
10C
330
10B
100
AcDbEntity
  8
0
100
AcDbBlockBegin
  2
SW_CENTERMARKSYMBOL_3
 70
     0
 10
0.0
 20
0.0
 30
0.0
  3
SW_CENTERMARKSYMBOL_3
  1

  0
LINE
  5
10E
330
10B
100
AcDbEntity
  8
FORMAT
 62
     0
100
AcDbLine
 10
0.0
 20
0.0
 30
0.0
 11
0.0
 21
2.5
 31
0.0
  0
LINE
  5
10F
330
10B
100
AcDbEntity
  8
FORMAT
 62
     0
100
AcDbLine
 10
0.0
 20
0.0
 30
0.0
 11
-2.5
 21
0.0
 31
0.0
  0
LINE
  5
110
330
10B
100
AcDbEntity
  8
FORMAT
 62
     0
100
AcDbLine
 10
0.0
 20
0.0
 30
0.0
 11
0.0
 21
-2.5
 31
0.0
  0
LINE
  5
111
330
10B
100
AcDbEntity
  8
FORMAT
 62
     0
100
AcDbLine
 10
0.0
 20
0.0
 30
0.0
 11
2.5
 21
0.0
 31
0.0
  0
LINE
  5
112
330
10B
100
AcDbEntity
  8
FORMAT
 62
     0
100
AcDbLine
 10
0.0
 20
5.0
 30
0.0
 11
0.0
 21
113.5
 31
0.0
  0
LINE
  5
113
330
10B
100
AcDbEntity
  8
FORMAT
 62
     0
100
AcDbLine
 10
-5.0
 20
0.0
 30
0.0
 11
-113.5
 21
0.0
 31
0.0
  0
LINE
  5
114
330
10B
100
AcDbEntity
  8
FORMAT
 62
     0
100
AcDbLine
 10
0.0
 20
-5.0
 30
0.0
 11
0.0
 21
-113.5
 31
0.0
  0
LINE
  5
115
330
10B
100
AcDbEntity
  8
FORMAT
 62
     0
100
AcDbLine
 10
5.0
 20
0.0
 30
0.0
 11
113.5
 21
0.0
 31
0.0
  0
ENDBLK
  5
10D
330
10B
100
AcDbEntity
  8
0
100
AcDbBlockEnd
  0
ENDSEC
  0
SECTION
  2
ENTITIES
  0
LINE
  5
83
330
1F
100
AcDbEntity
  8
0
  6
Continuous
 62
     7
370
    25
100
AcDbLine
 10
167.2159659508
 20
331.6378838778
 30
0.0
 11
76.4630445271
 21
240.8849624542
 31
0.0
  0
LINE
  5
84
330
1F
100
AcDbEntity
  8
0
  6
Continuous
 62
     7
370
    25
100
AcDbLine
 10
233.4407499505
 20
83.9072570308
 30
0.0
 11
324.1936713742
 21
174.6601784544
 31
0.0
  0
ARC
  5
85
330
1F
100
AcDbEntity
  8
0
  6
Continuous
 62
     7
370
    25
100
AcDbCircle
 10
234.8549635129
 20
82.4930434684
 30
0.0
 40
1.999999999999976
100
AcDbArc
 50
135.0
 51
180.0
  0
ARC
  5
86
330
1F
100
AcDbEntity
  8
0
  6
Continuous
 62
     7
370
    25
100
AcDbCircle
 10
234.8549635129
 20
82.4930434684
 30
0.0
 40
224.0
100
AcDbArc
 50
135.0
 51
180.0
  0
LINE
  5
87
330
1F
100
AcDbEntity
  8
0
  6
Continuous
 62
     7
370
    25
100
AcDbLine
 10
10.8549635129
 20
82.4930434684
 30
0.0
 11
10.8549635129
 21
-45.8509688339
 31
0.0
  0
LINE
  5
88
330
1F
100
AcDbEntity
  8
0
  6
Continuous
 62
     7
370
    25
100
AcDbLine
 10
232.8549635129
 20
-45.8509688339
 30
0.0
 11
232.8549635129
 21
82.4930434684
 31
0.0
  0
CIRCLE
  5
89
330
1F
100
AcDbEntity
  8
0
  6
Continuous
 62
     7
370
    25
100
AcDbCircle
 10
121.8549635129
 20
-35.8509688339
 30
0.0
 40
5.0
  0
CIRCLE
  5
8A
330
1F
100
AcDbEntity
  8
0
  6
Continuous
 62
     7
370
    25
100
AcDbCircle
 10
121.8549635129
 20
-35.8509688339
 30
0.0
 40
7.0
  0
CIRCLE
  5
8B
330
1F
100
AcDbEntity
  8
0
  6
Continuous
 62
     7
370
    25
100
AcDbCircle
 10
238.6337508506
 20
246.0779633543
 30
0.0
 40
7.000000000000028
  0
CIRCLE
  5
8C
330
1F
100
AcDbEntity
  8
0
  6
Continuous
 62
     7
370
    25
100
AcDbCircle
 10
238.6337508506
 20
246.0779633543
 30
0.0
 40
5.000000000000028
  0
LINE
  5
8D
330
1F
100
AcDbEntity
  8
0
  6
Continuous
 62
     7
370
    25
100
AcDbLine
 10
245.7048186625
 20
253.1490311661
 30
0.0
 11
324.1936713742
 21
174.6601784544
 31
0.0
  0
LINE
  5
8E
330
1F
100
AcDbEntity
  8
0
  6
Continuous
 62
     7
370
    25
100
AcDbLine
 10
167.2159659508
 20
331.6378838778
 30
0.0
 11
245.7048186625
 21
253.1490311661
 31
0.0
  0
LINE
  5
8F
330
1F
100
AcDbEntity
  8
0
  6
Continuous
 62
     7
370
    25
100
AcDbLine
 10
121.8549635129
 20
-45.8509688339
 30
0.0
 11
232.8549635129
 21
-45.8509688339
 31
0.0
  0
LINE
  5
90
330
1F
100
AcDbEntity
  8
0
  6
Continuous
 62
     7
370
    25
100
AcDbLine
 10
10.8549635129
 20
-45.8509688339
 30
0.0
 11
121.8549635129
 21
-45.8509688339
 31
0.0
  0
LINE
  5
91
330
1F
100
AcDbEntity
  8
0
  6
Continuous
 62
     1
370
    25
100
AcDbLine
 10
154.9518972388
 20
162.3961097425
 30
0.0
 11
233.4407499505
 21
83.9072570308
 31
0.0
  0
LINE
  5
92
330
1F
100
AcDbEntity
  8
0
  6
Continuous
 62
     1
370
    25
100
AcDbLine
 10
76.4630445271
 20
240.8849624542
 30
0.0
 11
154.9518972388
 21
162.3961097425
 31
0.0
  0
LINE
  5
93
330
1F
100
AcDbEntity
  8
0
  6
Continuous
 62
     1
370
    25
100
AcDbLine
 10
121.8549635129
 20
82.4930434684
 30
0.0
 11
232.8549635129
 21
82.4930434684
 31
0.0
  0
LINE
  5
94
330
1F
100
AcDbEntity
  8
0
  6
Continuous
 62
     1
370
    25
100
AcDbLine
 10
10.8549635129
 20
82.4930434684
 30
0.0
 11
121.8549635129
 21
82.4930434684
 31
0.0
  0
LINE
  5
95
330
1F
100
AcDbEntity
  8
0
  6
Continuous
 62
     7
370
    25
100
AcDbLine
 10
-352.6656148083
 20
239.0779633543
 30
0.0
 11
-352.6656148083
 21
162.3961097425
 31
0.0
  0
LINE
  5
96
330
1F
100
AcDbEntity
  8
0
  6
Continuous
 62
     7
370
    25
100
AcDbLine
 10
-352.6656148083
 20
253.1490311661
 30
0.0
 11
-352.6656148083
 21
250.9635556441
 31
0.0
  0
LINE
  5
97
330
1F
100
AcDbEntity
  8
0
  6
Continuous
 62
     7
370
    25
100
AcDbLine
 10
-130.6656148083
 20
162.3961097425
 30
0.0
 11
-130.6656148083
 21
253.1490311661
 31
0.0
  0
LINE
  5
98
330
1F
100
AcDbEntity
  8
0
  6
Continuous
 62
     7
370
    25
100
AcDbLine
 10
-352.6656148083
 20
253.0779633543
 30
0.0
 11
-367.6656148083
 21
253.0779633543
 31
0.0
  0
LINE
  5
99
330
1F
100
AcDbEntity
  8
0
  6
Continuous
 62
     7
370
    25
100
AcDbLine
 10
-367.6656148083
 20
239.0779633543
 30
0.0
 11
-352.5547446952
 21
239.0779633543
 31
0.0
  0
LINE
  5
9A
330
1F
100
AcDbEntity
  8
0
  6
Continuous
 62
     7
370
    25
100
AcDbLine
 10
-352.6656148083
 20
162.3961097425
 30
0.0
 11
-352.6656148083
 21
82.4930434684
 31
0.0
  0
LINE
  5
9B
330
1F
100
AcDbEntity
  8
0
  6
Continuous
 62
     7
370
    25
100
AcDbLine
 10
-130.6656148083
 20
82.4930434684
 30
0.0
 11
-130.6656148083
 21
162.3961097425
 31
0.0
  0
LINE
  5
9C
330
1F
100
AcDbEntity
  8
0
  6
Continuous
 62
     7
370
    25
100
AcDbLine
 10
-352.6656148083
 20
-42.7616010393
 30
0.0
 11
-352.6656148083
 21
-45.8509688339
 31
0.0
  0
LINE
  5
9D
330
1F
100
AcDbEntity
  8
0
  6
Continuous
 62
     7
370
    25
100
AcDbLine
 10
-352.6656148083
 20
82.4930434684
 30
0.0
 11
-352.6656148083
 21
-28.859858361
 31
0.0
  0
LINE
  5
9E
330
1F
100
AcDbEntity
  8
0
  6
Continuous
 62
     7
370
    25
100
AcDbLine
 10
-130.6656148083
 20
-45.8509688339
 30
0.0
 11
-130.6656148083
 21
82.4930434684
 31
0.0
  0
LINE
  5
9F
330
1F
100
AcDbEntity
  8
0
  6
Continuous
 62
     7
370
    25
100
AcDbLine
 10
-352.6650828934
 20
-28.8509688339
 30
0.0
 11
-367.6656148083
 21
-28.8509688339
 31
0.0
  0
LINE
  5
A0
330
1F
100
AcDbEntity
  8
0
  6
Continuous
 62
     7
370
    25
100
AcDbLine
 10
-367.6656148083
 20
-42.8509688339
 30
0.0
 11
-352.6600466177
 21
-42.8509688339
 31
0.0
  0
LWPOLYLINE
  5
A1
330
1F
100
AcDbEntity
  8
0
  6
Continuous
 62
     7
370
    25
100
AcDbPolyline
 90
      112
 70
   128
 43
0.0
 10
-352.6656148083
 20
253.1490311661
 10
-352.4878315764
 20
248.7085204636
 10
-351.9550513741
 20
244.2822340555
 10
-351.0689808569
 20
239.8843506717
 10
-349.8324583758
 20
235.5289580585
 10
-348.2494448852
 20
231.2300078515
 10
-346.3250112545
 20
227.0012708842
 10
-344.0653220247
 20
222.856293076
 10
-341.4776156617
 20
218.8083520404
 10
-338.5701813692
 20
214.8704145529
 10
-335.3523325356
 20
211.0550950145
 10
-331.8343769009
 20
207.3746150438
 10
-328.0275835376
 20
203.8407643279
 10
-323.9441467525
 20
200.4648628558
 10
-319.5971470246
 20
197.2577246578
 10
-315.0005091046
 20
194.2296231644
 10
-310.1689574095
 20
191.3902582976
 10
-305.117968856
 20
188.748725399
 10
-299.8637232831
 20
186.3134860949
 10
-294.4230516236
 20
184.0923411909
 10
-288.8133819888
 20
182.0924056837
 10
-283.0526838419
 20
180.3200859699
 10
-277.1594104357
 20
178.7810593236
 10
-271.1524397016
 20
177.4802557112
 10
-265.0510137778
 20
176.4218419988
 10
-258.874677371
 20
175.6092086047
 10
-252.6432151487
 20
175.0449586386
 10
-246.3765883631
 20
174.7308995633
 10
-240.0948709089
 20
174.6680374046
 10
-233.8181850209
 20
174.856573529
 10
-227.5666368164
 20
175.2959039984
 10
-221.3602518888
 20
175.984621505
 10
-215.2189111603
 20
176.9205198788
 10
-209.1622871966
 20
178.1006011554
 10
-203.2097811901
 20
179.5210851784
 10
-197.3804608123
 20
181.1774217095
 10
-191.6929991335
 20
183.0643050034
 10
-186.1656148083
 20
185.1756908039
 10
-180.8160137149
 20
187.5048157059
 10
-175.6613322385
 20
190.0442188201
 10
-170.7180823778
 20
192.7857656728
 10
-166.0020988524
 20
195.720674263
 10
-161.5284883793
 20
198.8395431935
 10
-157.3115812815
 20
202.1323817869
 10
-153.3648855838
 20
205.5886420886
 10
-149.7010437422
 20
209.1972526547
 10
-146.3317921468
 20
212.9466540178
 10
-143.2679235262
 20
216.8248357149
 10
-140.5192523752
 20
220.8193747609
 10
-138.0945835162
 20
224.917475443
 10
-136.0016838945
 20
229.1060103092
 10
-134.2472576987
 20
233.3715622195
 10
-132.8369248846
 20
237.7004673253
 10
-131.7752031735
 20
242.0788588384
 10
-131.0654935801
 20
246.4927114509
 10
-130.7100695181
 20
250.9278862621
 10
-130.7100695181
 20
255.3701760701
 10
-131.0654935801
 20
259.8053508814
 10
-131.7752031735
 20
264.2192034939
 10
-132.8369248846
 20
268.597595007
 10
-134.2472576987
 20
272.9265001128
 10
-136.0016838945
 20
277.1920520231
 10
-138.0945835162
 20
281.3805868893
 10
-140.5192523752
 20
285.4786875713
 10
-143.2679235262
 20
289.4732266173
 10
-146.3317921468
 20
293.3514083145
 10
-149.7010437422
 20
297.1008096776
 10
-153.3648855838
 20
300.7094202437
 10
-157.3115812815
 20
304.1656805454
 10
-161.5284883793
 20
307.4585191388
 10
-166.0020988524
 20
310.5773880693
 10
-170.7180823778
 20
313.5122966594
 10
-175.6613322385
 20
316.2538435121
 10
-180.8160137149
 20
318.7932466264
 10
-186.1656148083
 20
321.1223715284
 10
-191.6929991335
 20
323.2337573289
 10
-197.3804608123
 20
325.1206406227
 10
-203.2097811901
 20
326.7769771538
 10
-209.1622871966
 20
328.1974611769
 10
-215.2189111603
 20
329.3775424534
 10
-221.3602518888
 20
330.3134408273
 10
-227.5666368164
 20
331.0021583339
 10
-233.8181850209
 20
331.4414888033
 10
-240.0948709089
 20
331.6300249277
 10
-246.3765883631
 20
331.567162769
 10
-252.6432151487
 20
331.2531036937
 10
-258.874677371
 20
330.6888537276
 10
-265.0510137778
 20
329.8762203335
 10
-271.1524397016
 20
328.8178066211
 10
-277.1594104357
 20
327.5170030087
 10
-283.0526838419
 20
325.9779763624
 10
-288.8133819888
 20
324.2056566485
 10
-294.4230516236
 20
322.2057211414
 10
-299.8637232831
 20
319.9845762374
 10
-305.117968856
 20
317.5493369333
 10
-310.1689574095
 20
314.9078040347
 10
-315.0005091046
 20
312.0684391679
 10
-319.5971470246
 20
309.0403376745
 10
-323.9441467525
 20
305.8331994765
 10
-328.0275835376
 20
302.4572980044
 10
-331.8343769009
 20
298.9234472885
 10
-335.3523325356
 20
295.2429673178
 10
-338.5701813692
 20
291.4276477794
 10
-341.4776156617
 20
287.4897102919
 10
-344.0653220247
 20
283.4417692563
 10
-346.3250112545
 20
279.2967914481
 10
-348.2494448852
 20
275.0680544808
 10
-349.8324583758
 20
270.7691042737
 10
-351.0689808569
 20
266.4137116605
 10
-351.9550513741
 20
262.0158282767
 10
-352.4878315764
 20
257.5895418687
 10
-352.6656148083
 20
253.1490311661
  0
LWPOLYLINE
  5
A2
330
1F
100
AcDbEntity
  8
0
  6
Continuous
 62
     7
370
    25
100
AcDbPolyline
 90
      101
 70
   128
 43
0.0
 10
-331.6656148083
 20
253.1490311661
 10
-331.4880203668
 20
257.1449953599
 10
-330.9559379266
 20
261.1251893087
 10
-330.0714673739
 20
265.0739050051
 10
-328.8380993099
 20
268.9755586726
 10
-327.2607012748
 20
272.8147522663
 10
-325.3454985382
 20
276.5763342434
 10
-323.1000495302
 20
280.245459358
 10
-320.5332160122
 20
283.8076472498
 10
-317.6551281035
 20
287.2488395905
 10
-314.477144302
 20
290.5554555661
 10
-311.0118066581
 20
293.7144454739
 10
-307.2727912762
 20
296.7133422241
 10
-303.2748543419
 20
299.5403105411
 10
-299.0337738857
 20
302.1841936726
 10
-294.5662875146
 20
304.6345574197
 10
-289.8900263564
 20
306.8817313162
 10
-285.0234454774
 20
308.9168467934
 10
-279.9857510491
 20
310.7318721801
 10
-274.7968245499
 20
312.3196444005
 10
-269.477144302
 20
313.6738972429
 10
-264.0477046531
 20
314.7892860901
 10
-258.529933121
 20
315.6614090118
 10
-252.9456058291
 20
316.2868241374
 10
-247.3167615659
 20
316.6630632391
 10
-241.6656148083
 20
316.7886414729
 10
-236.0144680506
 20
316.6630632391
 10
-230.3856237875
 20
316.2868241374
 10
-224.8012964956
 20
315.6614090118
 10
-219.2835249634
 20
314.7892860901
 10
-213.8540853145
 20
313.6738972429
 10
-208.5344050667
 20
312.3196444005
 10
-203.3454785674
 20
310.7318721801
 10
-198.3077841391
 20
308.9168467934
 10
-193.4412032602
 20
306.8817313162
 10
-188.764942102
 20
304.6345574197
 10
-184.2974557309
 20
302.1841936726
 10
-180.0563752747
 20
299.5403105411
 10
-176.0584383404
 20
296.7133422241
 10
-172.3194229585
 20
293.7144454739
 10
-168.8540853145
 20
290.5554555661
 10
-165.6761015131
 20
287.2488395905
 10
-162.7980136043
 20
283.8076472498
 10
-160.2311800863
 20
280.245459358
 10
-157.9857310783
 20
276.5763342434
 10
-156.0705283417
 20
272.8147522663
 10
-154.4931303067
 20
268.9755586725
 10
-153.2597622427
 20
265.0739050051
 10
-152.37529169
 20
261.1251893087
 10
-151.8432092497
 20
257.1449953599
 10
-151.6656148083
 20
253.1490311661
 10
-151.8432092497
 20
249.1530669723
 10
-152.37529169
 20
245.1728730236
 10
-153.2597622427
 20
241.2241573271
 10
-154.4931303067
 20
237.3225036597
 10
-156.0705283417
 20
233.4833100659
 10
-157.9857310783
 20
229.7217280889
 10
-160.2311800863
 20
226.0526029742
 10
-162.7980136043
 20
222.4904150824
 10
-165.6761015131
 20
219.0492227417
 10
-168.8540853145
 20
215.7426067662
 10
-172.3194229585
 20
212.5836168583
 10
-176.0584383404
 20
209.5847201082
 10
-180.0563752747
 20
206.7577517912
 10
-184.2974557309
 20
204.1138686597
 10
-188.764942102
 20
201.6635049125
 10
-193.4412032602
 20
199.4163310161
 10
-198.3077841391
 20
197.3812155389
 10
-203.3454785674
 20
195.5661901522
 10
-208.5344050667
 20
193.9784179318
 10
-213.8540853145
 20
192.6241650894
 10
-219.2835249634
 20
191.5087762422
 10
-224.8012964956
 20
190.6366533204
 10
-230.3856237875
 20
190.0112381948
 10
-236.0144680506
 20
189.6349990932
 10
-241.6656148083
 20
189.5094208594
 10
-247.3167615659
 20
189.6349990932
 10
-252.9456058291
 20
190.0112381948
 10
-258.529933121
 20
190.6366533204
 10
-264.0477046531
 20
191.5087762422
 10
-269.477144302
 20
192.6241650894
 10
-274.7968245499
 20
193.9784179318
 10
-279.9857510491
 20
195.5661901522
 10
-285.0234454774
 20
197.3812155389
 10
-289.8900263564
 20
199.4163310161
 10
-294.5662875146
 20
201.6635049125
 10
-299.0337738857
 20
204.1138686597
 10
-303.2748543419
 20
206.7577517912
 10
-307.2727912762
 20
209.5847201082
 10
-311.0118066581
 20
212.5836168583
 10
-314.477144302
 20
215.7426067662
 10
-317.6551281035
 20
219.0492227417
 10
-320.5332160122
 20
222.4904150824
 10
-323.1000495302
 20
226.0526029742
 10
-325.3454985382
 20
229.7217280889
 10
-327.2607012748
 20
233.4833100659
 10
-328.8380993099
 20
237.3225036597
 10
-330.0714673739
 20
241.2241573271
 10
-330.9559379266
 20
245.1728730236
 10
-331.4880203668
 20
249.1530669723
 10
-331.6656148083
 20
253.1490311661
  0
SPLINE
  5
A3
330
1F
100
AcDbEntity
  8
0
  6
Continuous
 62
     7
370
    25
100
AcDbSpline
210
0.0
220
0.0
230
1.0
 70
     8
 71
     3
 72
    15
 73
    11
 74
     0
 42
0.00000001
 43
0.00000001
 40
0.0
 40
0.0
 40
0.0
 40
0.0
 40
0.0485540526243002
 40
0.1918707454972525
 40
0.335082952228429
 40
0.4780460134174421
 40
0.6210044873866769
 40
0.764209608102243
 40
0.9075281538729038
 40
1.0
 40
1.0
 40
1.0
 40
1.0
 10
-352.5547446951676
 20
239.1668075103164
 30
0.0
 10
-352.5464741702887
 20
239.1425252253741
 30
0.0
 10
-352.5137915889511
 20
239.0465690721297
 30
0.0
 10
-352.461370541324
 20
239.69432408334
 30
0.0
 10
-352.4360326704166
 20
241.0446565618486
 30
0.0
 10
-352.4625700660858
 20
243.012398395027
 30
0.0
 10
-352.5301067936784
 20
245.3152845234459
 30
0.0
 10
-352.6067653622329
 20
247.6876944538706
 30
0.0
 10
-352.6605800714325
 20
249.6929601223315
 30
0.0
 10
-352.66012322581
 20
250.6056363349258
 30
0.0
 10
-352.6599440609264
 20
250.9635680284761
 30
0.0
  0
LINE
  5
A4
330
1F
100
AcDbEntity
  8
0
  6
Continuous
 62
     7
370
    25
100
AcDbLine
 10
-367.6656148083
 20
253.0779633543
 30
0.0
 11
-367.6656148083
 21
239.0779633543
 31
0.0
  0
LINE
  5
A5
330
1F
100
AcDbEntity
  8
0
  6
Continuous
 62
     7
370
    25
100
AcDbLine
 10
-352.6656148083
 20
-45.8509688339
 30
0.0
 11
-130.6656148083
 21
-45.8509688339
 31
0.0
  0
SPLINE
  5
A6
330
1F
100
AcDbEntity
  8
0
  6
Continuous
 62
     7
370
    25
100
AcDbSpline
210
0.0
220
0.0
230
1.0
 70
     8
 71
     3
 72
    17
 73
    13
 74
     0
 42
0.00000001
 43
0.00000001
 40
0.0
 40
0.0
 40
0.0
 40
0.0
 40
0.0367651863283051
 40
0.1439164835626613
 40
0.2511459452335657
 40
0.3585613692265062
 40
0.465980975747615
 40
0.5732154591056698
 40
0.6803647326540686
 40
0.7876613821643802
 40
0.8951081625372803
 40
0.9999999999999999
 40
0.9999999999999999
 40
0.9999999999999999
 40
0.9999999999999999
 10
-352.6600308008524
 20
-42.76160103931273
 30
0.0
 10
-352.6615602683239
 20
-42.78611230706795
 30
0.0
 10
-352.6675473338661
 20
-42.88206110579002
 30
0.0
 10
-352.6267895980449
 20
-42.23468946779418
 30
0.0
 10
-352.5549648300988
 20
-40.88720276761451
 30
0.0
 10
-352.479968976925
 20
-38.91805850339419
 30
0.0
 10
-352.4387572947749
 20
-36.61619764835095
 30
0.0
 10
-352.448300792724
 20
-34.22713967373001
 30
0.0
 10
-352.5048845052815
 20
-32.01917871793356
 30
0.0
 10
-352.5824611573526
 20
-30.25690547871391
 30
0.0
 10
-352.6512508421694
 20
-29.07262130297136
 30
0.0
 10
-352.6604999878811
 20
-28.93020815104024
 30
0.0
 10
-352.6650689160326
 20
-28.85985836098708
 30
0.0
  0
LINE
  5
A7
330
1F
100
AcDbEntity
  8
0
  6
Continuous
 62
     7
370
    25
100
AcDbLine
 10
-367.6656148083
 20
-28.8509688339
 30
0.0
 11
-367.6656148083
 21
-42.8509688339
 31
0.0
  0
LWPOLYLINE
  5
A8
330
1F
100
AcDbEntity
  8
0
  6
Continuous
 62
     1
370
    25
100
AcDbPolyline
 90
       57
 70
   128
 43
0.0
 10
-352.6656148083
 20
162.3961097425
 10
-352.4878315764
 20
157.95559904
 10
-351.9550513741
 20
153.5293126319
 10
-351.0689808569
 20
149.1314292481
 10
-349.8324583758
 20
144.7760366349
 10
-348.2494448852
 20
140.4770864279
 10
-346.3250112545
 20
136.2483494606
 10
-344.0653220247
 20
132.1033716524
 10
-341.4776156617
 20
128.0554306168
 10
-338.5701813692
 20
124.1174931293
 10
-335.3523325356
 20
120.3021735908
 10
-331.8343769009
 20
116.6216936202
 10
-328.0275835376
 20
113.0878429042
 10
-323.9441467525
 20
109.7119414322
 10
-319.5971470246
 20
106.5048032342
 10
-315.0005091046
 20
103.4767017408
 10
-310.1689574095
 20
100.6373368739
 10
-305.117968856
 20
97.9958039753
 10
-299.8637232831
 20
95.5605646712
 10
-294.4230516236
 20
93.3394197672
 10
-288.8133819888
 20
91.3394842601
 10
-283.0526838419
 20
89.5671645462
 10
-277.1594104357
 20
88.0281378999
 10
-271.1524397016
 20
86.7273342875
 10
-265.0510137778
 20
85.6689205752
 10
-258.874677371
 20
84.8562871811
 10
-252.6432151487
 20
84.292037215
 10
-246.3765883631
 20
83.9779781396
 10
-240.0948709089
 20
83.9151159809
 10
-233.8181850209
 20
84.1036521053
 10
-227.5666368164
 20
84.5429825748
 10
-221.3602518888
 20
85.2317000813
 10
-215.2189111603
 20
86.1675984552
 10
-209.1622871966
 20
87.3476797317
 10
-203.2097811901
 20
88.7681637548
 10
-197.3804608123
 20
90.4245002859
 10
-191.6929991335
 20
92.3113835797
 10
-186.1656148083
 20
94.4227693803
 10
-180.8160137149
 20
96.7518942823
 10
-175.6613322385
 20
99.2912973965
 10
-170.7180823778
 20
102.0328442492
 10
-166.0020988524
 20
104.9677528393
 10
-161.5284883793
 20
108.0866217698
 10
-157.3115812815
 20
111.3794603633
 10
-153.3648855838
 20
114.8357206649
 10
-149.7010437422
 20
118.4443312311
 10
-146.3317921468
 20
122.1937325942
 10
-143.2679235262
 20
126.0719142913
 10
-140.5192523752
 20
130.0664533373
 10
-138.0945835162
 20
134.1645540194
 10
-136.0016838945
 20
138.3530888855
 10
-134.2472576987
 20
142.6186407959
 10
-132.8369248846
 20
146.9475459017
 10
-131.7752031735
 20
151.3259374148
 10
-131.0654935801
 20
155.7397900273
 10
-130.7100695181
 20
160.1749648385
 10
-130.6656148083
 20
162.3961097425
  0
LWPOLYLINE
  5
A9
330
1F
100
AcDbEntity
  8
0
  6
Continuous
 62
     1
370
    25
100
AcDbPolyline
 90
       27
 70
   128
 43
0.0
 10
-304.7683376223
 20
207.7725704543
 10
-303.2748543419
 20
208.7873891175
 10
-299.0337738857
 20
211.431272249
 10
-294.5662875146
 20
213.8816359961
 10
-289.8900263564
 20
216.1288098926
 10
-285.0234454774
 20
218.1639253697
 10
-279.9857510491
 20
219.9789507565
 10
-274.7968245499
 20
221.5667229768
 10
-269.477144302
 20
222.9209758193
 10
-264.0477046531
 20
224.0363646664
 10
-258.529933121
 20
224.9084875882
 10
-252.9456058291
 20
225.5339027138
 10
-247.3167615659
 20
225.9101418154
 10
-241.6656148083
 20
226.0357200493
 10
-236.0144680506
 20
225.9101418154
 10
-230.3856237875
 20
225.5339027138
 10
-224.8012964956
 20
224.9084875882
 10
-219.2835249634
 20
224.0363646664
 10
-213.8540853145
 20
222.9209758193
 10
-208.5344050667
 20
221.5667229768
 10
-203.3454785674
 20
219.9789507565
 10
-198.3077841391
 20
218.1639253697
 10
-193.4412032602
 20
216.1288098926
 10
-188.764942102
 20
213.8816359961
 10
-184.2974557309
 20
211.431272249
 10
-180.0563752747
 20
208.7873891175
 10
-178.5628919943
 20
207.7725704543
  0
LINE
  5
AA
330
1F
100
AcDbEntity
  8
0
  6
Continuous
 62
     1
370
    25
100
AcDbLine
 10
-352.6656148083
 20
82.4930434684
 30
0.0
 11
-130.6656148083
 21
82.4930434684
 31
0.0
  0
INSERT
  5
B6
330
1F
100
AcDbEntity
  8
FORMAT
 62
     7
100
AcDbBlockReference
  2
SW_CENTERMARKSYMBOL_0
 10
-241.6656148083
 20
151.1490311661
 30
0.0
  0
LINE
  5
B7
330
1F
100
AcDbEntity
  8
0
  6
Continuous
 62
     7
370
    25
100
AcDbLine
 10
128.8549635129
 20
656.8434006139
 30
0.0
 11
128.8549635129
 21
672.058971279
 31
0.0
  0
LINE
  5
B8
330
1F
100
AcDbEntity
  8
0
  6
Continuous
 62
     7
370
    25
100
AcDbLine
 10
114.8549635129
 20
672.058971279
 30
0.0
 11
114.8549635129
 21
656.838030672
 31
0.0
  0
LINE
  5
B9
330
1F
100
AcDbEntity
  8
0
  6
Continuous
 62
     7
370
    25
100
AcDbLine
 10
154.9518972388
 20
657.058971279
 30
0.0
 11
128.8549635129
 21
657.058971279
 31
0.0
  0
LINE
  5
BA
330
1F
100
AcDbEntity
  8
0
  6
Continuous
 62
     7
370
    25
100
AcDbLine
 10
121.8549635129
 20
435.058971279
 30
0.0
 11
154.9518972388
 21
435.058971279
 31
0.0
  0
LINE
  5
BB
330
1F
100
AcDbEntity
  8
0
  6
Continuous
 62
     7
370
    25
100
AcDbLine
 10
233.745946829
 20
657.058971279
 30
0.0
 11
154.9518972388
 21
657.058971279
 31
0.0
  0
LINE
  5
BC
330
1F
100
AcDbEntity
  8
0
  6
Continuous
 62
     7
370
    25
100
AcDbLine
 10
245.7048186625
 20
657.058971279
 30
0.0
 11
245.6337508506
 21
657.058971279
 31
0.0
  0
LINE
  5
BD
330
1F
100
AcDbEntity
  8
0
  6
Continuous
 62
     7
370
    25
100
AcDbLine
 10
154.9518972388
 20
435.058971279
 30
0.0
 11
245.7048186625
 21
435.058971279
 31
0.0
  0
LINE
  5
BE
330
1F
100
AcDbEntity
  8
0
  6
Continuous
 62
     7
370
    25
100
AcDbLine
 10
245.6337508506
 20
656.9480589057
 30
0.0
 11
245.6337508506
 21
672.058971279
 31
0.0
  0
LINE
  5
BF
330
1F
100
AcDbEntity
  8
0
  6
Continuous
 62
     7
370
    25
100
AcDbLine
 10
231.6337508506
 20
672.058971279
 30
0.0
 11
231.6337508506
 21
657.058971279
 31
0.0
  0
CIRCLE
  5
C0
330
1F
100
AcDbEntity
  8
0
  6
Continuous
 62
     7
370
    25
100
AcDbCircle
 10
121.8549635129
 20
546.058971279
 30
0.0
 40
90.0
  0
CIRCLE
  5
C1
330
1F
100
AcDbEntity
  8
0
  6
Continuous
 62
     7
370
    25
100
AcDbCircle
 10
121.8549635129
 20
546.058971279
 30
0.0
 40
111.0
  0
LINE
  5
C2
330
1F
100
AcDbEntity
  8
0
  6
Continuous
 62
     7
370
    25
100
AcDbLine
 10
128.8549635129
 20
672.058971279
 30
0.0
 11
114.8549635129
 21
672.058971279
 31
0.0
  0
LWPOLYLINE
  5
C3
330
1F
100
AcDbEntity
  8
0
  6
Continuous
 62
     7
370
    25
100
AcDbPolyline
 90
       57
 70
   128
 43
0.0
 10
245.7048186625
 20
657.058971279
 10
250.145329365
 20
656.8811880471
 10
254.5716157731
 20
656.3484078448
 10
258.9694991569
 20
655.4623373276
 10
263.3248917701
 20
654.2258148466
 10
267.6238419771
 20
652.6428013559
 10
271.8525789444
 20
650.7183677252
 10
275.9975567526
 20
648.4586784954
 10
280.0454977882
 20
645.8709721325
 10
283.9834352757
 20
642.9635378399
 10
287.7987548141
 20
639.7456890063
 10
291.4792347848
 20
636.2277333717
 10
295.0130855008
 20
632.4209400084
 10
298.3889869728
 20
628.3375032232
 10
301.5961251708
 20
623.9905034953
 10
304.6242266642
 20
619.3938655753
 10
307.463591531
 20
614.5623138802
 10
310.1051244296
 20
609.5113253267
 10
312.5403637337
 20
604.2570797539
 10
314.7615086377
 20
598.8164080943
 10
316.7614441449
 20
593.2067384595
 10
318.5337638588
 20
587.4460403126
 10
320.0727905051
 20
581.5527669064
 10
321.3735941174
 20
575.5457961723
 10
322.4320078298
 20
569.4443702485
 10
323.2446412239
 20
563.2680338417
 10
323.80889119
 20
557.0365716194
 10
324.1229502653
 20
550.7699448338
 10
324.185812424
 20
544.4882273796
 10
323.9972762996
 20
538.2115414916
 10
323.5579458302
 20
531.9599932871
 10
322.8692283236
 20
525.7536083596
 10
321.9333299498
 20
519.612267631
 10
320.7532486733
 20
513.5556436673
 10
319.3327646502
 20
507.6031376609
 10
317.6764281191
 20
501.773817283
 10
315.7895448252
 20
496.0863556043
 10
313.6781590247
 20
490.558971279
 10
311.3490341227
 20
485.2093701857
 10
308.8096310085
 20
480.0546887092
 10
306.0680841558
 20
475.1114388486
 10
303.1331755657
 20
470.3954553232
 10
300.0143066352
 20
465.9218448501
 10
296.7214680417
 20
461.7049377523
 10
293.2652077401
 20
457.7582420545
 10
289.6565971739
 20
454.094400213
 10
285.9071958108
 20
450.7251486175
 10
282.0290141137
 20
447.6612799969
 10
278.0344750677
 20
444.9126088459
 10
273.9363743856
 20
442.4879399869
 10
269.7478395194
 20
440.3950403653
 10
265.4822876091
 20
438.6406141694
 10
261.1533825033
 20
437.2302813553
 10
256.7749909902
 20
436.1685596442
 10
252.3611383777
 20
435.4588500508
 10
247.9259635665
 20
435.1034259889
 10
245.7048186625
 20
435.058971279
  0
SPLINE
  5
C4
330
1F
100
AcDbEntity
  8
0
  6
Continuous
 62
     7
370
    25
100
AcDbSpline
210
0.0
220
0.0
230
1.0
 70
     8
 71
     3
 72
    15
 73
    11
 74
     0
 42
0.00000001
 43
0.00000001
 40
0.0
 40
0.0
 40
0.0
 40
0.0
 40
0.0958446893517597
 40
0.2387696614232924
 40
0.3818877981732302
 40
0.5252083332161215
 40
0.6684243793160733
 40
0.8113912731945316
 40
0.9543535797302329
 40
1.0
 40
1.0
 40
1.0
 40
1.0
 10
233.7459329350864
 20
657.0534995506938
 30
0.0
 10
234.1195770080707
 20
657.0534506968469
 30
0.0
 10
235.0504044686497
 20
657.0533289914442
 30
0.0
 10
237.074063533785
 20
656.9986065110337
 30
0.0
 10
239.4474801079028
 20
656.921783692566
 30
0.0
 10
241.7482804895587
 20
656.8547650714285
 30
0.0
 10
243.7072377574098
 20
656.8293944377119
 30
0.0
 10
245.0392191443421
 20
656.8558674971476
 30
0.0
 10
245.6715805697762
 20
656.9082742129642
 30
0.0
 10
245.5717552054901
 20
656.9403065518301
 30
0.0
 10
245.5475958221521
 20
656.9480589057475
 30
0.0
  0
LWPOLYLINE
  5
C5
330
1F
100
AcDbEntity
  8
0
  6
Continuous
 62
     7
370
    25
100
AcDbPolyline
 90
       23
 70
   128
 43
0.0
 10
194.4045289616
 20
599.3183418462
 10
194.2192924089
 20
598.9596439853
 10
191.9721185124
 20
594.2833828271
 10
189.9370030352
 20
589.4168019482
 10
188.1219776485
 20
584.3791075199
 10
186.5342054281
 20
579.1901810206
 10
185.1799525857
 20
573.8705007728
 10
184.0645637385
 20
568.4410611239
 10
183.1924408168
 20
562.9232895917
 10
182.5670256912
 20
557.3389622998
 10
182.1907865895
 20
551.7101180367
 10
182.0652083557
 20
546.058971279
 10
182.1907865895
 20
540.4078245214
 10
182.5670256912
 20
534.7789802582
 10
183.1924408168
 20
529.1946529663
 10
184.0645637385
 20
523.6768814342
 10
185.1799525857
 20
518.2474417853
 10
186.5342054281
 20
512.9277615374
 10
188.1219776485
 20
507.7388350382
 10
189.9370030352
 20
502.7011406099
 10
191.9721185124
 20
497.8345597309
 10
194.2192924089
 20
493.1582985727
 10
194.4045289616
 20
492.7996007119
  0
LINE
  5
C6
330
1F
100
AcDbEntity
  8
0
  6
Continuous
 62
     7
370
    25
100
AcDbLine
 10
245.6337508506
 20
672.058971279
 30
0.0
 11
231.6337508506
 21
672.058971279
 31
0.0
  0
LWPOLYLINE
  5
C7
330
1F
100
AcDbEntity
  8
0
  6
Continuous
 62
     1
370
    25
100
AcDbPolyline
 90
       57
 70
   128
 43
0.0
 10
154.9518972388
 20
657.058971279
 10
159.3924079414
 20
656.8811880471
 10
163.8186943494
 20
656.3484078448
 10
168.2165777332
 20
655.4623373276
 10
172.5719703464
 20
654.2258148466
 10
176.8709205535
 20
652.6428013559
 10
181.0996575208
 20
650.7183677252
 10
185.244635329
 20
648.4586784954
 10
189.2925763646
 20
645.8709721325
 10
193.2305138521
 20
642.9635378399
 10
197.0458333905
 20
639.7456890063
 10
200.7263133612
 20
636.2277333717
 10
204.2601640771
 20
632.4209400084
 10
207.6360655492
 20
628.3375032232
 10
210.8432037472
 20
623.9905034953
 10
213.8713052406
 20
619.3938655753
 10
216.7106701074
 20
614.5623138802
 10
219.352203006
 20
609.5113253267
 10
221.7874423101
 20
604.2570797539
 10
224.0085872141
 20
598.8164080943
 10
226.0085227212
 20
593.2067384595
 10
227.7808424351
 20
587.4460403126
 10
229.3198690814
 20
581.5527669064
 10
230.6206726938
 20
575.5457961723
 10
231.6790864062
 20
569.4443702485
 10
232.4917198003
 20
563.2680338417
 10
233.0559697663
 20
557.0365716194
 10
233.3700288417
 20
550.7699448338
 10
233.4328910004
 20
544.4882273796
 10
233.244354876
 20
538.2115414916
 10
232.8050244065
 20
531.9599932871
 10
232.1163069
 20
525.7536083596
 10
231.1804085261
 20
519.612267631
 10
230.0003272496
 20
513.5556436673
 10
228.5798432265
 20
507.6031376609
 10
226.9235066954
 20
501.773817283
 10
225.0366234016
 20
496.0863556043
 10
222.9252376011
 20
490.558971279
 10
220.5961126991
 20
485.2093701857
 10
218.0567095848
 20
480.0546887092
 10
215.3151627321
 20
475.1114388486
 10
212.380254142
 20
470.3954553232
 10
209.2613852115
 20
465.9218448501
 10
205.9685466181
 20
461.7049377523
 10
202.5122863164
 20
457.7582420545
 10
198.9036757503
 20
454.094400213
 10
195.1542743872
 20
450.7251486175
 10
191.27609269
 20
447.6612799969
 10
187.281553644
 20
444.9126088459
 10
183.183452962
 20
442.4879399869
 10
178.9949180958
 20
440.3950403653
 10
174.7293661855
 20
438.6406141694
 10
170.4004610797
 20
437.2302813553
 10
166.0220695666
 20
436.1685596442
 10
161.6082169541
 20
435.4588500508
 10
157.1730421428
 20
435.1034259889
 10
154.9518972388
 20
435.058971279
  0
LWPOLYLINE
  5
C8
330
1F
100
AcDbEntity
  8
0
  6
Continuous
 62
     1
370
    25
100
AcDbPolyline
 90
       45
 70
   128
 43
0.0
 10
141.2426984166
 20
633.9459198852
 10
139.1253697324
 20
633.2314557806
 10
135.2861761386
 20
631.6540577456
 10
131.5245941616
 20
629.738855009
 10
127.8554690469
 20
627.493406001
 10
124.2932811551
 20
624.926572483
 10
120.8520888144
 20
622.0484845742
 10
117.5454728389
 20
618.8705007728
 10
114.386482931
 20
615.4051631288
 10
111.3875861809
 20
611.6661477469
 10
108.5606178639
 20
607.6682108126
 10
105.9167347324
 20
603.4271303564
 10
103.4663709852
 20
598.9596439853
 10
101.2191970887
 20
594.2833828271
 10
99.1840816116
 20
589.4168019482
 10
97.3690562249
 20
584.3791075199
 10
95.7812840045
 20
579.1901810206
 10
94.4270311621
 20
573.8705007728
 10
93.3116423149
 20
568.4410611239
 10
92.4395193931
 20
562.9232895917
 10
91.8141042675
 20
557.3389622998
 10
91.4378651659
 20
551.7101180367
 10
91.312286932
 20
546.058971279
 10
91.4378651659
 20
540.4078245214
 10
91.8141042675
 20
534.7789802582
 10
92.4395193931
 20
529.1946529663
 10
93.3116423149
 20
523.6768814342
 10
94.4270311621
 20
518.2474417853
 10
95.7812840045
 20
512.9277615374
 10
97.3690562249
 20
507.7388350382
 10
99.1840816116
 20
502.7011406099
 10
101.2191970887
 20
497.8345597309
 10
103.4663709852
 20
493.1582985727
 10
105.9167347324
 20
488.6908122016
 10
108.5606178639
 20
484.4497317454
 10
111.3875861809
 20
480.4517948111
 10
114.386482931
 20
476.7127794292
 10
117.5454728389
 20
473.2474417853
 10
120.8520888144
 20
470.0694579838
 10
124.2932811551
 20
467.1913700751
 10
127.8554690469
 20
464.6245365571
 10
131.5245941616
 20
462.3790875491
 10
135.2861761386
 20
460.4638848125
 10
139.1253697324
 20
458.8864867774
 10
141.2426984166
 20
458.1720226728
  0
INSERT
  5
D4
330
1F
100
AcDbEntity
  8
FORMAT
 62
     7
100
AcDbBlockReference
  2
SW_CENTERMARKSYMBOL_1
 10
121.8549635129
 20
546.058971279
 30
0.0
  0
LINE
  5
D5
330
1F
100
AcDbEntity
  8
0
  6
Continuous
 62
     7
370
    25
100
AcDbLine
 10
521.736568876
 20
82.4930434684
 30
0.0
 11
521.736568876
 21
-45.8509688339
 31
0.0
  0
LINE
  5
D6
330
1F
100
AcDbEntity
  8
0
  6
Continuous
 62
     7
370
    25
100
AcDbLine
 10
743.736568876
 20
-28.859858361
 30
0.0
 11
743.736568876
 21
82.4930434684
 31
0.0
  0
LINE
  5
D7
330
1F
100
AcDbEntity
  8
0
  6
Continuous
 62
     7
370
    25
100
AcDbLine
 10
743.736568876
 20
-45.8509688339
 30
0.0
 11
743.736568876
 21
-42.7616010393
 31
0.0
  0
LINE
  5
D8
330
1F
100
AcDbEntity
  8
0
  6
Continuous
 62
     7
370
    25
100
AcDbLine
 10
743.736568876
 20
82.4930434684
 30
0.0
 11
743.736568876
 21
162.3961097425
 31
0.0
  0
LINE
  5
D9
330
1F
100
AcDbEntity
  8
0
  6
Continuous
 62
     7
370
    25
100
AcDbLine
 10
521.736568876
 20
162.3961097425
 30
0.0
 11
521.736568876
 21
82.4930434684
 31
0.0
  0
LINE
  5
DA
330
1F
100
AcDbEntity
  8
0
  6
Continuous
 62
     7
370
    25
100
AcDbLine
 10
521.736568876
 20
253.1490311661
 30
0.0
 11
521.736568876
 21
162.3961097425
 31
0.0
  0
LINE
  5
DB
330
1F
100
AcDbEntity
  8
0
  6
Continuous
 62
     7
370
    25
100
AcDbLine
 10
743.736568876
 20
253.0779633543
 30
0.0
 11
743.736568876
 21
253.1490311661
 31
0.0
  0
LINE
  5
DC
330
1F
100
AcDbEntity
  8
0
  6
Continuous
 62
     7
370
    25
100
AcDbLine
 10
743.736568876
 20
162.3961097425
 30
0.0
 11
743.736568876
 21
241.1901593326
 31
0.0
  0
LINE
  5
DD
330
1F
100
AcDbEntity
  8
0
  6
Continuous
 62
     7
370
    25
100
AcDbLine
 10
743.7310006854
 20
-42.8509688339
 30
0.0
 11
758.736568876
 21
-42.8509688339
 31
0.0
  0
LINE
  5
DE
330
1F
100
AcDbEntity
  8
0
  6
Continuous
 62
     7
370
    25
100
AcDbLine
 10
758.736568876
 20
-28.8509688339
 30
0.0
 11
743.7360369611
 21
-28.8509688339
 31
0.0
  0
LINE
  5
DF
330
1F
100
AcDbEntity
  8
0
  6
Continuous
 62
     7
370
    25
100
AcDbLine
 10
743.736568876
 20
239.0779633543
 30
0.0
 11
758.736568876
 21
239.0779633543
 31
0.0
  0
LINE
  5
E0
330
1F
100
AcDbEntity
  8
0
  6
Continuous
 62
     7
370
    25
100
AcDbLine
 10
758.736568876
 20
253.0779633543
 30
0.0
 11
743.62603227
 21
253.0779633543
 31
0.0
  0
LINE
  5
E1
330
1F
100
AcDbEntity
  8
0
  6
Continuous
 62
     7
370
    25
100
AcDbLine
 10
521.736568876
 20
-45.8509688339
 30
0.0
 11
743.736568876
 21
-45.8509688339
 31
0.0
  0
SPLINE
  5
E2
330
1F
100
AcDbEntity
  8
0
  6
Continuous
 62
     7
370
    25
100
AcDbSpline
210
0.0
220
0.0
230
1.0
 70
     8
 71
     3
 72
    12
 73
     8
 74
     0
 42
0.00000001
 43
0.00000001
 40
0.0
 40
0.0
 40
0.0
 40
0.0
 40
0.2145471957305672
 40
0.4290840480100461
 40
0.6438892417945694
 40
0.8588698678196454
 40
1.0
 40
1.0
 40
1.0
 40
1.0
 10
743.5156282689868
 20
-35.85096883386041
 30
0.0
 10
743.5206219903321
 20
-36.63679887249994
 30
0.0
 10
743.5306091922723
 20
-38.20842106443383
 30
0.0
 10
743.600774302272
 20
-40.30835289281219
 30
0.0
 10
743.6767575607614
 20
-41.87705868761388
 30
0.0
 10
743.731270715876
 20
-42.76789949503478
 30
0.0
 10
743.7310659995894
 20
-42.76338870783669
 30
0.0
 10
743.7309848685481
 20
-42.76160103931269
 30
0.0
  0
SPLINE
  5
E3
330
1F
100
AcDbEntity
  8
0
  6
Continuous
 62
     7
370
    25
100
AcDbSpline
210
0.0
220
0.0
230
1.0
 70
     8
 71
     3
 72
    13
 73
     9
 74
     0
 42
0.00000001
 43
0.00000001
 40
0.0
 40
0.0
 40
0.0
 40
0.0
 40
0.004945634621341
 40
0.2192260761122106
 40
0.4335049718807772
 40
0.6481531026771148
 40
0.8629673343508397
 40
1.0
 40
1.0
 40
1.0
 40
1.0
 10
743.7360229837283
 20
-28.85985836098695
 30
0.0
 10
743.7362045713013
 20
-28.85690075688046
 30
0.0
 10
743.7442538378042
 20
-28.72579848333966
 30
0.0
 10
743.7145323193292
 20
-29.19490692980567
 30
0.0
 10
743.6516186854205
 20
-30.29452150283272
 30
0.0
 10
743.5727865195645
 20
-32.11159938556118
 30
0.0
 10
743.5229414020398
 20
-34.06320572371213
 30
0.0
 10
743.5176781360551
 20
-35.34985984283708
 30
0.0
 10
743.5156282689868
 20
-35.85096883386041
 30
0.0
  0
LWPOLYLINE
  5
E4
330
1F
100
AcDbEntity
  8
0
  6
Continuous
 62
     7
370
    25
100
AcDbPolyline
 90
       57
 70
   128
 43
0.0
 10
521.736568876
 20
253.1490311661
 10
521.7810235858
 20
255.3701760701
 10
522.1364476478
 20
259.8053508814
 10
522.8461572412
 20
264.2192034939
 10
523.9078789523
 20
268.597595007
 10
525.3182117664
 20
272.9265001128
 10
527.0726379622
 20
277.1920520231
 10
529.1655375839
 20
281.3805868893
 10
531.5902064429
 20
285.4786875713
 10
534.3388775939
 20
289.4732266173
 10
537.4027462145
 20
293.3514083145
 10
540.7719978099
 20
297.1008096776
 10
544.4358396515
 20
300.7094202437
 10
548.3825353492
 20
304.1656805454
 10
552.599442447
 20
307.4585191388
 10
557.0730529201
 20
310.5773880693
 10
561.7890364455
 20
313.5122966594
 10
566.7322863062
 20
316.2538435121
 10
571.8869677826
 20
318.7932466264
 10
577.236568876
 20
321.1223715284
 10
582.7639532012
 20
323.2337573289
 10
588.45141488
 20
325.1206406227
 10
594.2807352578
 20
326.7769771538
 10
600.2332412643
 20
328.1974611769
 10
606.289865228
 20
329.3775424534
 10
612.4312059565
 20
330.3134408273
 10
618.6375908841
 20
331.0021583339
 10
624.8891390886
 20
331.4414888033
 10
631.1658249766
 20
331.6300249277
 10
637.4475424308
 20
331.567162769
 10
643.7141692164
 20
331.2531036937
 10
649.9456314387
 20
330.6888537276
 10
656.1219678455
 20
329.8762203335
 10
662.2233937693
 20
328.8178066211
 10
668.2303645034
 20
327.5170030087
 10
674.1236379096
 20
325.9779763624
 10
679.8843360565
 20
324.2056566485
 10
685.4940056913
 20
322.2057211414
 10
690.9346773508
 20
319.9845762374
 10
696.1889229237
 20
317.5493369333
 10
701.2399114772
 20
314.9078040347
 10
706.0714631723
 20
312.0684391679
 10
710.6681010923
 20
309.0403376745
 10
715.0151008202
 20
305.8331994765
 10
719.0985376053
 20
302.4572980044
 10
722.9053309686
 20
298.9234472885
 10
726.4232866033
 20
295.2429673178
 10
729.6411354369
 20
291.4276477794
 10
732.5485697294
 20
287.4897102919
 10
735.1362760924
 20
283.4417692563
 10
737.3959653222
 20
279.2967914481
 10
739.3203989529
 20
275.0680544808
 10
740.9034124435
 20
270.7691042737
 10
742.1399349246
 20
266.4137116605
 10
743.0260054418
 20
262.0158282767
 10
743.5587856441
 20
257.5895418687
 10
743.736568876
 20
253.1490311661
  0
SPLINE
  5
E5
330
1F
100
AcDbEntity
  8
0
  6
Continuous
 62
     7
370
    25
100
AcDbSpline
210
0.0
220
0.0
230
1.0
 70
     8
 71
     3
 72
    10
 73
     6
 74
     0
 42
0.00000001
 43
0.00000001
 40
0.0
 40
0.0
 40
0.0
 40
0.0
 40
0.4292603230317036
 40
0.8585413249259463
 40
1.0
 40
1.0
 40
1.0
 40
1.0
 10
743.6261535987993
 20
246.0779633542742
 30
0.0
 10
743.650293535089
 20
245.2988801751716
 30
0.0
 10
743.6985745705672
 20
243.7406762860017
 30
0.0
 10
743.7387548462906
 20
242.0225205603558
 30
0.0
 10
743.7326181395239
 20
241.3554962024747
 30
0.0
 10
743.7310971476538
 20
241.1901732264918
 30
0.0
  0
SPLINE
  5
E6
330
1F
100
AcDbEntity
  8
0
  6
Continuous
 62
     7
370
    25
100
AcDbSpline
210
0.0
220
0.0
230
1.0
 70
     8
 71
     3
 72
    13
 73
     9
 74
     0
 42
0.00000001
 43
0.00000001
 40
0.0
 40
0.0
 40
0.0
 40
0.0
 40
0.004442140714852
 40
0.2192237730217425
 40
0.4340079420206568
 40
0.6484205926361059
 40
0.8626681050545687
 40
1.0
 40
1.0
 40
1.0
 40
1.0
 10
743.6260322699922
 20
253.0699774544314
 30
0.0
 10
743.6255545524499
 20
253.0726319511748
 30
0.0
 10
743.6019787477309
 20
253.2036338326815
 30
0.0
 10
743.5495974081639
 20
252.7343345730131
 30
0.0
 10
743.509679872001
 20
251.6325773310421
 30
0.0
 10
743.5196421191208
 20
249.8142306084639
 30
0.0
 10
743.5697517860701
 20
247.8647186545329
 30
0.0
 10
743.6103107091303
 20
246.5798508950804
 30
0.0
 10
743.6261535987993
 20
246.0779633542741
 30
0.0
  0
LINE
  5
E7
330
1F
100
AcDbEntity
  8
0
  6
Continuous
 62
     7
370
    25
100
AcDbLine
 10
758.736568876
 20
-35.8509688339
 30
0.0
 11
758.736568876
 21
-28.8509688339
 31
0.0
  0
LINE
  5
E8
330
1F
100
AcDbEntity
  8
0
  6
Continuous
 62
     7
370
    25
100
AcDbLine
 10
758.736568876
 20
-42.8509688339
 30
0.0
 11
758.736568876
 21
-35.8509688339
 31
0.0
  0
LINE
  5
E9
330
1F
100
AcDbEntity
  8
0
  6
Continuous
 62
     7
370
    25
100
AcDbLine
 10
758.736568876
 20
246.0779633543
 30
0.0
 11
758.736568876
 21
253.0779633543
 31
0.0
  0
LINE
  5
EA
330
1F
100
AcDbEntity
  8
0
  6
Continuous
 62
     7
370
    25
100
AcDbLine
 10
758.736568876
 20
239.0779633543
 30
0.0
 11
758.736568876
 21
246.0779633543
 31
0.0
  0
LINE
  5
EB
330
1F
100
AcDbEntity
  8
0
  6
Continuous
 62
     1
370
    25
100
AcDbLine
 10
521.736568876
 20
82.4930434684
 30
0.0
 11
743.736568876
 21
82.4930434684
 31
0.0
  0
LWPOLYLINE
  5
EC
330
1F
100
AcDbEntity
  8
0
  6
Continuous
 62
     1
370
    25
100
AcDbPolyline
 90
       57
 70
   128
 43
0.0
 10
521.736568876
 20
162.3961097425
 10
521.7810235858
 20
164.6172546465
 10
522.1364476478
 20
169.0524294577
 10
522.8461572412
 20
173.4662820702
 10
523.9078789523
 20
177.8446735834
 10
525.3182117664
 20
182.1735786891
 10
527.0726379622
 20
186.4391305995
 10
529.1655375839
 20
190.6276654656
 10
531.5902064429
 20
194.7257661477
 10
534.3388775939
 20
198.7203051937
 10
537.4027462145
 20
202.5984868908
 10
540.7719978099
 20
206.3478882539
 10
544.4358396515
 20
209.9564988201
 10
548.3825353492
 20
213.4127591217
 10
552.599442447
 20
216.7055977152
 10
557.0730529201
 20
219.8244666457
 10
561.7890364455
 20
222.7593752358
 10
566.7322863062
 20
225.5009220885
 10
571.8869677826
 20
228.0403252027
 10
577.236568876
 20
230.3694501047
 10
582.7639532012
 20
232.4808359053
 10
588.45141488
 20
234.3677191991
 10
594.2807352578
 20
236.0240557302
 10
600.2332412643
 20
237.4445397533
 10
606.289865228
 20
238.6246210298
 10
612.4312059565
 20
239.5605194037
 10
618.6375908841
 20
240.2492369102
 10
624.8891390886
 20
240.6885673797
 10
631.1658249766
 20
240.8771035041
 10
637.4475424308
 20
240.8142413454
 10
643.7141692164
 20
240.50018227
 10
649.9456314387
 20
239.9359323039
 10
656.1219678455
 20
239.1232989098
 10
662.2233937693
 20
238.0648851975
 10
668.2303645034
 20
236.7640815851
 10
674.1236379096
 20
235.2250549388
 10
679.8843360565
 20
233.4527352249
 10
685.4940056913
 20
231.4527997178
 10
690.9346773508
 20
229.2316548138
 10
696.1889229237
 20
226.7964155097
 10
701.2399114772
 20
224.1548826111
 10
706.0714631723
 20
221.3155177442
 10
710.6681010923
 20
218.2874162508
 10
715.0151008202
 20
215.0802780529
 10
719.0985376053
 20
211.7043765808
 10
722.9053309686
 20
208.1705258648
 10
726.4232866033
 20
204.4900458942
 10
729.6411354369
 20
200.6747263557
 10
732.5485697294
 20
196.7367888682
 10
735.1362760924
 20
192.6888478326
 10
737.3959653222
 20
188.5438700244
 10
739.3203989529
 20
184.3151330571
 10
740.9034124435
 20
180.0161828501
 10
742.1399349246
 20
175.6607902369
 10
743.0260054418
 20
171.2629068531
 10
743.5587856441
 20
166.836620445
 10
743.736568876
 20
162.3961097425
  0
INSERT
  5
F8
330
1F
100
AcDbEntity
  8
FORMAT
 62
     7
100
AcDbBlockReference
  2
SW_CENTERMARKSYMBOL_2
 10
632.736568876
 20
151.1490311661
 30
0.0
  0
LINE
  5
F9
330
1F
100
AcDbEntity
  8
0
  6
Continuous
 62
     7
370
    25
100
AcDbLine
 10
245.7048186625
 20
-243.0838859212
 30
0.0
 11
154.9518972388
 21
-243.0838859212
 31
0.0
  0
LINE
  5
FA
330
1F
100
AcDbEntity
  8
0
  6
Continuous
 62
     7
370
    25
100
AcDbLine
 10
243.5193431405
 20
-465.0838859212
 30
0.0
 11
245.7048186625
 21
-465.0838859212
 31
0.0
  0
LINE
  5
FB
330
1F
100
AcDbEntity
  8
0
  6
Continuous
 62
     7
370
    25
100
AcDbLine
 10
154.9518972388
 20
-465.0838859212
 30
0.0
 11
231.6337508506
 21
-465.0838859212
 31
0.0
  0
LINE
  5
FC
330
1F
100
AcDbEntity
  8
0
  6
Continuous
 62
     7
370
    25
100
AcDbLine
 10
231.6337508506
 20
-464.973470644
 30
0.0
 11
231.6337508506
 21
-480.0838859212
 31
0.0
  0
LINE
  5
FD
330
1F
100
AcDbEntity
  8
0
  6
Continuous
 62
     7
370
    25
100
AcDbLine
 10
245.6337508506
 20
-480.0838859212
 30
0.0
 11
245.6337508506
 21
-465.0838859212
 31
0.0
  0
LINE
  5
FE
330
1F
100
AcDbEntity
  8
0
  6
Continuous
 62
     7
370
    25
100
AcDbLine
 10
121.8549635129
 20
-465.0838859212
 30
0.0
 11
154.9518972388
 21
-465.0838859212
 31
0.0
  0
LINE
  5
FF
330
1F
100
AcDbEntity
  8
0
  6
Continuous
 62
     7
370
    25
100
AcDbLine
 10
154.9518972388
 20
-243.0838859212
 30
0.0
 11
121.8549635129
 21
-243.0838859212
 31
0.0
  0
LINE
  5
100
330
1F
100
AcDbEntity
  8
0
  6
Continuous
 62
     7
370
    25
100
AcDbLine
 10
114.8549635129
 20
-464.8629453142
 30
0.0
 11
114.8549635129
 21
-480.0838859212
 31
0.0
  0
LINE
  5
101
330
1F
100
AcDbEntity
  8
0
  6
Continuous
 62
     7
370
    25
100
AcDbLine
 10
128.8549635129
 20
-480.0838859212
 30
0.0
 11
128.8549635129
 21
-465.0838859212
 31
0.0
  0
LWPOLYLINE
  5
102
330
1F
100
AcDbEntity
  8
0
  6
Continuous
 62
     7
370
    25
100
AcDbPolyline
 90
      112
 70
   128
 43
0.0
 10
245.7048186625
 20
-465.0838859212
 10
250.145329365
 20
-464.9061026893
 10
254.5716157731
 20
-464.373322487
 10
258.9694991569
 20
-463.4872519698
 10
263.3248917701
 20
-462.2507294888
 10
267.6238419771
 20
-460.6677159981
 10
271.8525789444
 20
-458.7432823674
 10
275.9975567526
 20
-456.4835931376
 10
280.0454977882
 20
-453.8958867747
 10
283.9834352757
 20
-450.9884524821
 10
287.7987548141
 20
-447.7706036485
 10
291.4792347848
 20
-444.2526480139
 10
295.0130855008
 20
-440.4458546506
 10
298.3889869728
 20
-436.3624178654
 10
301.5961251708
 20
-432.0154181375
 10
304.6242266642
 20
-427.4187802175
 10
307.463591531
 20
-422.5872285224
 10
310.1051244296
 20
-417.5362399689
 10
312.5403637337
 20
-412.2819943961
 10
314.7615086377
 20
-406.8413227365
 10
316.7614441449
 20
-401.2316531017
 10
318.5337638588
 20
-395.4709549548
 10
320.0727905051
 20
-389.5776815486
 10
321.3735941174
 20
-383.5707108145
 10
322.4320078298
 20
-377.4692848907
 10
323.2446412239
 20
-371.2929484839
 10
323.80889119
 20
-365.0614862617
 10
324.1229502653
 20
-358.794859476
 10
324.185812424
 20
-352.5131420218
 10
323.9972762996
 20
-346.2364561338
 10
323.5579458302
 20
-339.9849079293
 10
322.8692283236
 20
-333.7785230018
 10
321.9333299498
 20
-327.6371822732
 10
320.7532486733
 20
-321.5805583095
 10
319.3327646502
 20
-315.6280523031
 10
317.6764281191
 20
-309.7987319252
 10
315.7895448252
 20
-304.1112702465
 10
313.6781590247
 20
-298.5838859212
 10
311.3490341227
 20
-293.2342848279
 10
308.8096310085
 20
-288.0796033514
 10
306.0680841558
 20
-283.1363534908
 10
303.1331755657
 20
-278.4203699654
 10
300.0143066352
 20
-273.9467594923
 10
296.7214680417
 20
-269.7298523945
 10
293.2652077401
 20
-265.7831566967
 10
289.6565971739
 20
-262.1193148552
 10
285.9071958108
 20
-258.7500632598
 10
282.0290141137
 20
-255.6861946391
 10
278.0344750677
 20
-252.9375234881
 10
273.9363743856
 20
-250.5128546291
 10
269.7478395194
 20
-248.4199550075
 10
265.4822876091
 20
-246.6655288116
 10
261.1533825033
 20
-245.2551959975
 10
256.7749909902
 20
-244.1934742864
 10
252.3611383777
 20
-243.483764693
 10
247.9259635665
 20
-243.1283406311
 10
243.4836737585
 20
-243.1283406311
 10
239.0484989472
 20
-243.483764693
 10
234.6346463348
 20
-244.1934742864
 10
230.2562548216
 20
-245.2551959975
 10
225.9273497158
 20
-246.6655288116
 10
221.6617978055
 20
-248.4199550075
 10
217.4732629393
 20
-250.5128546291
 10
213.3751622573
 20
-252.9375234881
 10
209.3806232113
 20
-255.6861946391
 10
205.5024415142
 20
-258.7500632598
 10
201.753040151
 20
-262.1193148552
 10
198.1444295849
 20
-265.7831566967
 10
194.6881692832
 20
-269.7298523945
 10
191.3953306898
 20
-273.9467594923
 10
188.2764617593
 20
-278.4203699654
 10
185.3415531692
 20
-283.1363534908
 10
182.6000063165
 20
-288.0796033514
 10
180.0606032022
 20
-293.2342848279
 10
177.7314783002
 20
-298.5838859212
 10
175.6200924997
 20
-304.1112702465
 10
173.7332092059
 20
-309.7987319252
 10
172.0768726748
 20
-315.6280523031
 10
170.6563886517
 20
-321.5805583095
 10
169.4763073752
 20
-327.6371822732
 10
168.5404090013
 20
-333.7785230018
 10
167.8516914948
 20
-339.9849079293
 10
167.4123610253
 20
-346.2364561338
 10
167.2238249009
 20
-352.5131420218
 10
167.2866870596
 20
-358.794859476
 10
167.600746135
 20
-365.0614862617
 10
168.1649961011
 20
-371.2929484839
 10
168.9776294952
 20
-377.4692848907
 10
170.0360432075
 20
-383.5707108145
 10
171.3368468199
 20
-389.5776815486
 10
172.8758734662
 20
-395.4709549548
 10
174.6481931801
 20
-401.2316531017
 10
176.6481286872
 20
-406.8413227365
 10
178.8692735912
 20
-412.2819943961
 10
181.3045128953
 20
-417.5362399689
 10
183.9460457939
 20
-422.5872285224
 10
186.7854106607
 20
-427.4187802175
 10
189.8135121541
 20
-432.0154181375
 10
193.0206503521
 20
-436.3624178654
 10
196.3965518242
 20
-440.4458546506
 10
199.9304025402
 20
-444.2526480139
 10
203.6108825108
 20
-447.7706036485
 10
207.4262020492
 20
-450.9884524821
 10
211.3641395367
 20
-453.8958867747
 10
215.4120805723
 20
-456.4835931376
 10
219.5570583806
 20
-458.7432823674
 10
223.7857953479
 20
-460.6677159981
 10
228.0847455549
 20
-462.2507294888
 10
232.4401381681
 20
-463.4872519698
 10
236.8380215519
 20
-464.373322487
 10
241.2643079599
 20
-464.9061026893
 10
245.7048186625
 20
-465.0838859212
  0
LWPOLYLINE
  5
103
330
1F
100
AcDbEntity
  8
0
  6
Continuous
 62
     7
370
    25
100
AcDbPolyline
 90
      101
 70
   128
 43
0.0
 10
245.7048186625
 20
-444.0838859212
 10
241.7088544687
 20
-443.9062914798
 10
237.72866052
 20
-443.3742090395
 10
233.7799448235
 20
-442.4897384868
 10
229.8782911561
 20
-441.2563704228
 10
226.0390975623
 20
-439.6789723878
 10
222.2775155853
 20
-437.7637696512
 10
218.6083904706
 20
-435.5183206432
 10
215.0462025788
 20
-432.9514871252
 10
211.6050102381
 20
-430.0733992164
 10
208.2983942625
 20
-426.895415415
 10
205.1394043547
 20
-423.430077771
 10
202.1405076045
 20
-419.6910623891
 10
199.3135392875
 20
-415.6931254548
 10
196.669656156
 20
-411.4520449986
 10
194.2192924089
 20
-406.9845586275
 10
191.9721185124
 20
-402.3082974693
 10
189.9370030352
 20
-397.4417165904
 10
188.1219776485
 20
-392.4040221621
 10
186.5342054281
 20
-387.2150956628
 10
185.1799525857
 20
-381.895415415
 10
184.0645637385
 20
-376.4659757661
 10
183.1924408168
 20
-370.9482042339
 10
182.5670256912
 20
-365.363876942
 10
182.1907865895
 20
-359.7350326789
 10
182.0652083557
 20
-354.0838859212
 10
182.1907865895
 20
-348.4327391636
 10
182.5670256912
 20
-342.8038949004
 10
183.1924408168
 20
-337.2195676085
 10
184.0645637385
 20
-331.7017960764
 10
185.1799525857
 20
-326.2723564275
 10
186.5342054281
 20
-320.9526761796
 10
188.1219776485
 20
-315.7637496804
 10
189.9370030352
 20
-310.7260552521
 10
191.9721185124
 20
-305.8594743731
 10
194.2192924089
 20
-301.1832132149
 10
196.669656156
 20
-296.7157268438
 10
199.3135392875
 20
-292.4746463876
 10
202.1405076045
 20
-288.4767094533
 10
205.1394043547
 20
-284.7376940714
 10
208.2983942625
 20
-281.2723564275
 10
211.6050102381
 20
-278.094372626
 10
215.0462025788
 20
-275.2162847173
 10
218.6083904706
 20
-272.6494511993
 10
222.2775155853
 20
-270.4040021913
 10
226.0390975623
 20
-268.4887994547
 10
229.8782911561
 20
-266.9114014196
 10
233.7799448235
 20
-265.6780333556
 10
237.72866052
 20
-264.7935628029
 10
241.7088544687
 20
-264.2614803627
 10
245.7048186625
 20
-264.0838859212
 10
249.7007828563
 20
-264.2614803627
 10
253.680976805
 20
-264.7935628029
 10
257.6296925015
 20
-265.6780333556
 10
261.5313461689
 20
-266.9114014196
 10
265.3705397627
 20
-268.4887994547
 10
269.1321217397
 20
-270.4040021913
 10
272.8012468544
 20
-272.6494511993
 10
276.3634347462
 20
-275.2162847173
 10
279.8046270869
 20
-278.094372626
 10
283.1112430624
 20
-281.2723564275
 10
286.2702329703
 20
-284.7376940714
 10
289.2691297204
 20
-288.4767094533
 10
292.0960980374
 20
-292.4746463876
 10
294.7399811689
 20
-296.7157268438
 10
297.1903449161
 20
-301.1832132149
 10
299.4375188126
 20
-305.8594743731
 10
301.4726342897
 20
-310.7260552521
 10
303.2876596765
 20
-315.7637496804
 10
304.8754318968
 20
-320.9526761796
 10
306.2296847392
 20
-326.2723564275
 10
307.3450735864
 20
-331.7017960764
 10
308.2171965082
 20
-337.2195676085
 10
308.8426116338
 20
-342.8038949004
 10
309.2188507354
 20
-348.4327391636
 10
309.3444289693
 20
-354.0838859212
 10
309.2188507354
 20
-359.7350326789
 10
308.8426116338
 20
-365.363876942
 10
308.2171965082
 20
-370.9482042339
 10
307.3450735864
 20
-376.4659757661
 10
306.2296847392
 20
-381.895415415
 10
304.8754318968
 20
-387.2150956628
 10
303.2876596765
 20
-392.4040221621
 10
301.4726342897
 20
-397.4417165904
 10
299.4375188126
 20
-402.3082974693
 10
297.1903449161
 20
-406.9845586275
 10
294.7399811689
 20
-411.4520449986
 10
292.0960980374
 20
-415.6931254548
 10
289.2691297204
 20
-419.6910623891
 10
286.2702329703
 20
-423.430077771
 10
283.1112430624
 20
-426.895415415
 10
279.8046270869
 20
-430.0733992164
 10
276.3634347462
 20
-432.9514871252
 10
272.8012468544
 20
-435.5183206432
 10
269.1321217397
 20
-437.7637696512
 10
265.3705397627
 20
-439.6789723878
 10
261.5313461689
 20
-441.2563704228
 10
257.6296925015
 20
-442.4897384868
 10
253.680976805
 20
-443.3742090395
 10
249.7007828563
 20
-443.9062914798
 10
245.7048186625
 20
-444.0838859212
  0
SPLINE
  5
104
330
1F
100
AcDbEntity
  8
0
  6
Continuous
 62
     7
370
    25
100
AcDbSpline
210
0.0
220
0.0
230
1.0
 70
     8
 71
     3
 72
    15
 73
    11
 74
     0
 42
0.00000001
 43
0.00000001
 40
0.0
 40
0.0
 40
0.0
 40
0.0
 40
0.0506134018530333
 40
0.1934324842834452
 40
0.3363592518211289
 40
0.4795330933310258
 40
0.6227086258046141
 40
0.7656365034225193
 40
0.9084542996066048
 40
1.0
 40
1.0
 40
1.0
 40
1.0
 10
243.5193307561507
 20
-465.0782151738645
 30
0.0
 10
243.3405643401383
 20
-465.0797441850521
 30
0.0
 10
242.65736126171
 20
-465.0855877051811
 30
0.0
 10
240.9191996959183
 20
-465.0443832625126
 30
0.0
 10
238.5885104799631
 20
-464.9723136670063
 30
0.0
 10
236.2234741695088
 20
-464.8975376217193
 30
0.0
 10
234.1363185335329
 20
-464.8568301369792
 30
0.0
 10
232.5664282356935
 20
-464.8670042258273
 30
0.0
 10
231.748102259575
 20
-464.9170621390837
 30
0.0
 10
231.6658713919182
 20
-464.9576258745705
 30
0.0
 10
231.6337508506072
 20
-464.9734706440416
 30
0.0
  0
LINE
  5
105
330
1F
100
AcDbEntity
  8
0
  6
Continuous
 62
     7
370
    25
100
AcDbLine
 10
231.6337508506
 20
-480.0838859212
 30
0.0
 11
245.6337508506
 21
-480.0838859212
 31
0.0
  0
ARC
  5
106
330
1F
100
AcDbEntity
  8
0
  6
Continuous
 62
     7
370
    25
100
AcDbCircle
 10
121.8549635129
 20
-354.0838859212
 30
0.0
 40
111.0
100
AcDbArc
 50
90.0
 51
270.0
  0
ARC
  5
107
330
1F
100
AcDbEntity
  8
0
  6
Continuous
 62
     7
370
    25
100
AcDbCircle
 10
121.8549635129
 20
-354.0838859212
 30
0.0
 40
90.00000000000004
100
AcDbArc
 50
323.7172306408
 51
36.2827693592
  0
LINE
  5
108
330
1F
100
AcDbEntity
  8
0
  6
Continuous
 62
     7
370
    25
100
AcDbLine
 10
114.8549635129
 20
-480.0838859212
 30
0.0
 11
128.8549635129
 21
-480.0838859212
 31
0.0
  0
LWPOLYLINE
  5
109
330
1F
100
AcDbEntity
  8
0
  6
Continuous
 62
     1
370
    25
100
AcDbPolyline
 90
       57
 70
   128
 43
0.0
 10
154.9518972388
 20
-243.0838859212
 10
152.7307523348
 20
-243.1283406311
 10
148.2955775236
 20
-243.483764693
 10
143.8817249111
 20
-244.1934742864
 10
139.503333398
 20
-245.2551959975
 10
135.1744282922
 20
-246.6655288116
 10
130.9088763819
 20
-248.4199550075
 10
126.7203415157
 20
-250.5128546291
 10
122.6222408336
 20
-252.9375234881
 10
118.6277017876
 20
-255.6861946391
 10
114.7495200905
 20
-258.7500632598
 10
111.0001187274
 20
-262.1193148552
 10
107.3915081613
 20
-265.7831566967
 10
103.9352478596
 20
-269.7298523945
 10
100.6424092662
 20
-273.9467594923
 10
97.5235403357
 20
-278.4203699654
 10
94.5886317455
 20
-283.1363534908
 10
91.8470848928
 20
-288.0796033514
 10
89.3076817786
 20
-293.2342848279
 10
86.9785568766
 20
-298.5838859212
 10
84.8671710761
 20
-304.1112702465
 10
82.9802877822
 20
-309.7987319252
 10
81.3239512511
 20
-315.6280523031
 10
79.9034672281
 20
-321.5805583095
 10
78.7233859515
 20
-327.6371822732
 10
77.7874875777
 20
-333.7785230018
 10
77.0987700711
 20
-339.9849079293
 10
76.6594396017
 20
-346.2364561338
 10
76.4709034773
 20
-352.5131420218
 10
76.533765636
 20
-358.794859476
 10
76.8478247113
 20
-365.0614862617
 10
77.4120746774
 20
-371.2929484839
 10
78.2247080715
 20
-377.4692848907
 10
79.2831217839
 20
-383.5707108145
 10
80.5839253963
 20
-389.5776815486
 10
82.1229520426
 20
-395.4709549548
 10
83.8952717564
 20
-401.2316531017
 10
85.8952072636
 20
-406.8413227365
 10
88.1163521676
 20
-412.2819943961
 10
90.5515914717
 20
-417.5362399689
 10
93.1931243703
 20
-422.5872285224
 10
96.0324892371
 20
-427.4187802175
 10
99.0605907305
 20
-432.0154181375
 10
102.2677289285
 20
-436.3624178654
 10
105.6436304006
 20
-440.4458546506
 10
109.1774811165
 20
-444.2526480139
 10
112.8579610872
 20
-447.7706036485
 10
116.6732806256
 20
-450.9884524821
 10
120.6112181131
 20
-453.8958867747
 10
124.6591591487
 20
-456.4835931376
 10
128.8041369569
 20
-458.7432823674
 10
133.0328739242
 20
-460.6677159981
 10
137.3318241312
 20
-462.2507294888
 10
141.6872167444
 20
-463.4872519698
 10
146.0851001282
 20
-464.373322487
 10
150.5113865363
 20
-464.9061026893
 10
154.9518972388
 20
-465.0838859212
  0
LWPOLYLINE
  5
10A
330
1F
100
AcDbEntity
  8
0
  6
Continuous
 62
     1
370
    25
100
AcDbPolyline
 90
       27
 70
   128
 43
0.0
 10
200.3283579507
 20
-290.9811631072
 10
201.3431766138
 20
-292.4746463876
 10
203.9870597453
 20
-296.7157268438
 10
206.4374234924
 20
-301.1832132149
 10
208.6845973889
 20
-305.8594743731
 10
210.7197128661
 20
-310.7260552521
 10
212.5347382528
 20
-315.7637496804
 10
214.1225104732
 20
-320.9526761796
 10
215.4767633156
 20
-326.2723564275
 10
216.5921521628
 20
-331.7017960764
 10
217.4642750845
 20
-337.2195676085
 10
218.0896902101
 20
-342.8038949004
 10
218.4659293118
 20
-348.4327391636
 10
218.5915075456
 20
-354.0838859212
 10
218.4659293118
 20
-359.7350326789
 10
218.0896902101
 20
-365.363876942
 10
217.4642750845
 20
-370.9482042339
 10
216.5921521628
 20
-376.4659757661
 10
215.4767633156
 20
-381.895415415
 10
214.1225104732
 20
-387.2150956628
 10
212.5347382528
 20
-392.4040221621
 10
210.7197128661
 20
-397.4417165904
 10
208.6845973889
 20
-402.3082974693
 10
206.4374234924
 20
-406.9845586275
 10
203.9870597453
 20
-411.4520449986
 10
201.3431766138
 20
-415.6931254548
 10
200.3283579507
 20
-417.1866087352
  0
INSERT
  5
116
330
1F
100
AcDbEntity
  8
FORMAT
 62
     7
100
AcDbBlockReference
  2
SW_CENTERMARKSYMBOL_3
 10
121.8549635129
 20
-354.0838859212
 30
0.0
  0
LINE
  5
117
330
1F
100
AcDbEntity
  8
0
  6
Continuous
 62
     7
370
    25
100
AcDbLine
 10
486.0290542219
 20
-356.1168279228
 30
0.0
 11
486.0290542219
 21
-460.9149519288
 31
0.0
  0
LINE
  5
118
330
1F
100
AcDbEntity
  8
0
  6
Continuous
 62
     7
370
    25
100
AcDbLine
 10
708.0290542219
 20
-460.9149519288
 30
0.0
 11
708.0290542219
 21
-356.1168279228
 31
0.0
  0
LINE
  5
119
330
1F
100
AcDbEntity
  8
0
  6
Continuous
 62
     7
370
    25
100
AcDbLine
 10
588.4753068976
 20
-110.7132358567
 30
0.0
 11
524.3033007465
 21
-221.8624106079
 31
0.0
  0
LINE
  5
11A
330
1F
100
AcDbEntity
  8
0
  6
Continuous
 62
     7
370
    25
100
AcDbLine
 10
716.5609402456
 20
-332.8624108522
 30
0.0
 11
780.7329463967
 21
-221.713236101
 31
0.0
  0
LINE
  5
11B
330
1F
100
AcDbEntity
  8
0
  6
Continuous
 62
     7
370
    25
100
AcDbLine
 10
522.1176822966
 20
-401.4214444743
 30
0.0
 11
511.4333153567
 21
-395.2534907284
 31
0.0
  0
LINE
  5
11C
330
1F
100
AcDbEntity
  8
0
  6
Continuous
 62
     7
370
    25
100
AcDbLine
 10
504.4338842282
 20
-407.3781748017
 30
0.0
 11
515.1188846579
 21
-413.5464942534
 31
0.0
  0
SPLINE
  5
11D
330
1F
100
AcDbEntity
  8
0
  6
Continuous
 62
     7
370
    25
100
AcDbSpline
210
0.0
220
0.0
230
1.0
 70
     8
 71
     3
 72
    23
 73
    19
 74
     0
 42
0.00000001
 43
0.00000001
 40
0.0
 40
0.0
 40
0.0
 40
0.0
 40
0.0002243692395413
 40
0.0748917266991237
 40
0.1468748306045068
 40
0.2171029024755267
 40
0.2860767301952226
 40
0.3542475799449319
 40
0.4220056975293188
 40
0.4896747287526449
 40
0.5575080488527074
 40
0.625631914175366
 40
0.6941709843712085
 40
0.7631931001030886
 40
0.8327063603943851
 40
0.902668235566846
 40
0.9729965666531107
 40
1.0
 40
1.0
 40
1.0
 40
1.0
 10
708.0286375819568
 20
-356.1695246984168
 30
0.0
 10
708.0286368845692
 20
-356.1696126147133
 30
0.0
 10
708.0284041050737
 20
-356.1989580065614
 30
0.0
 10
708.0310130330892
 20
-356.0585810941577
 30
0.0
 10
708.0645853098941
 20
-355.6304919494409
 30
0.0
 10
708.1489487449896
 20
-354.901876542315
 30
0.0
 10
708.3023915434011
 20
-353.9119927748888
 30
0.0
 10
708.5413980993166
 20
-352.6692513158561
 30
0.0
 10
708.8803519956006
 20
-351.1921116908396
 30
0.0
 10
709.3314468639028
 20
-349.498922333132
 30
0.0
 10
709.9042061705601
 20
-347.6117285330034
 30
0.0
 10
710.6051572360157
 20
-345.5554361280256
 30
0.0
 10
711.4374679514639
 20
-343.3578478439196
 30
0.0
 10
712.401066790354
 20
-341.0488187288422
 30
0.0
 10
713.4917686551572
 20
-338.6602409089859
 30
0.0
 10
714.7025712534546
 20
-336.2270247955832
 30
0.0
 10
715.7460022411938
 20
-334.2866592929917
 30
0.0
 10
716.3839499445407
 20
-333.1717327379312
 30
0.0
 10
716.5609402455639
 20
-332.8624108521976
 30
0.0
  0
SPLINE
  5
11E
330
1F
100
AcDbEntity
  8
0
  6
Continuous
 62
     7
370
    25
100
AcDbSpline
210
0.0
220
0.0
230
1.0
 70
     8
 71
     3
 72
    25
 73
    21
 74
     0
 42
0.00000001
 43
0.00000001
 40
0.0
 40
0.0
 40
0.0
 40
0.0
 40
0.0341049835648899
 40
0.0928467141577828
 40
0.1516500553042812
 40
0.2105468497050286
 40
0.2695709893537773
 40
0.3287545910705857
 40
0.3881268631974166
 40
0.4477127339388109
 40
0.5075311879902216
 40
0.5675932867780508
 40
0.6278998997635131
 40
0.6884392586640545
 40
0.7491845664912044
 40
0.8100920387006739
 40
0.8710952462566278
 40
0.9320896702540181
 40
0.9886133190641497
 40
0.9999999999999999
 40
0.9999999999999999
 40
0.9999999999999999
 40
0.9999999999999999
 10
524.3033007464819
 20
-221.8624106078684
 30
0.0
 10
523.4891316635175
 20
-223.2884101999203
 30
0.0
 10
521.2726542980241
 20
-227.1705225094147
 30
0.0
 10
517.8204802254934
 20
-233.6035315885909
 30
0.0
 10
514.0059598097375
 20
-241.1831501618155
 30
0.0
 10
510.4074582090462
 20
-248.8681436721192
 30
0.0
 10
507.0261434623699
 20
-256.6509481005703
 30
0.0
 10
503.8683487088242
 20
-264.526927194242
 30
0.0
 10
500.9397434440199
 20
-272.4905491694095
 30
0.0
 10
498.2469722393948
 20
-280.5361485690624
 30
0.0
 10
495.7972485345261
 20
-288.6574353604244
 30
0.0
 10
493.5984669575543
 20
-296.8472822458315
 30
0.0
 10
491.6591182234368
 20
-305.0973824954876
 30
0.0
 10
489.9882096380478
 20
-313.3979014384638
 30
0.0
 10
488.5949941995508
 20
-321.7371388152405
 30
0.0
 10
487.4890206897666
 20
-330.1009929044698
 30
0.0
 10
486.6786808304403
 20
-338.4719841640155
 30
0.0
 10
486.186715076103
 20
-346.6303628286042
 30
0.0
 10
486.0372413804096
 20
-352.5084184440691
 30
0.0
 10
486.0302298597182
 20
-355.5986771492942
 30
0.0
 10
486.0290542219429
 20
-356.1168279227811
 30
0.0
  0
LINE
  5
11F
330
1F
100
AcDbEntity
  8
0
  6
Continuous
 62
     7
370
    25
100
AcDbLine
 10
604.6189882917
 20
-123.5028062019
 30
0.0
 11
594.0083877819
 21
-117.3774369098
 31
0.0
  0
LINE
  5
120
330
1F
100
AcDbEntity
  8
0
  6
Continuous
 62
     7
370
    25
100
AcDbLine
 10
587.0089566534
 20
-129.5021209831
 30
0.0
 11
597.6194161308
 21
-135.627408859
 31
0.0
  0
LWPOLYLINE
  5
121
330
1F
100
AcDbEntity
  8
0
  6
Continuous
 62
     7
370
    25
100
AcDbPolyline
 90
      112
 70
   128
 43
0.0
 10
518.5402015102
 20
-415.6043017226
 10
523.1064239416
 20
-413.113421295
 10
527.9094428436
 20
-410.7756635809
 10
532.9338726987
 20
-408.5985171232
 10
538.1636187434
 20
-406.5889559783
 10
543.5819285243
 20
-404.7534173764
 10
549.1714455619
 20
-403.0977811009
 10
554.9142649478
 20
-401.627350654
 10
560.7919907004
 20
-400.3468362678
 10
566.785794692
 20
-399.2603398158
 10
572.8764769615
 20
-398.3713416738
 10
579.0445272174
 20
-397.6826895707
 10
585.2701873351
 20
-397.196589467
 10
591.5335146485
 20
-396.9145984877
 10
597.8144458319
 20
-396.837619935
 10
604.0928611692
 20
-396.9659003944
 10
610.3486490033
 20
-397.299028945
 10
616.5617701597
 20
-397.8359384754
 10
622.7123221384
 20
-398.5749091028
 10
628.7806028671
 20
-399.5135736813
 10
634.7471738132
 20
-400.6489253853
 10
640.5929222511
 20
-401.977327341
 10
646.2991224863
 20
-403.4945242765
 10
651.8474958392
 20
-405.1956561526
 10
657.2202691972
 20
-407.0752737311
 10
662.4002319474
 20
-409.1273560302
 10
667.3707911076
 20
-411.3453296117
 10
672.1160244782
 20
-413.7220896374
 10
676.6207316463
 20
-416.2500226285
 10
680.8704826766
 20
-418.9210308535
 10
684.8516643355
 20
-421.7265582679
 10
688.5515236979
 20
-424.6576179215
 10
691.9582089988
 20
-427.7048207466
 10
695.0608075981
 20
-430.8584056339
 10
697.8493809372
 20
-434.1082707003
 10
700.314996375
 20
-437.4440056483
 10
702.449755802
 20
-440.8549251131
 10
704.24682094
 20
-444.3301028913
 10
705.7004352478
 20
-447.858406941
 10
706.8059423604
 20
-451.4285350405
 10
707.5598010053
 20
-455.0290509931
 10
707.9595963459
 20
-458.648421261
 10
708.0040477173
 20
-462.2750519099
 10
707.6930127284
 20
-465.8973257485
 10
707.0274877179
 20
-469.5036395416
 10
706.0096045631
 20
-473.0824411791
 10
704.6426238506
 20
-476.6222666804
 10
702.9309244318
 20
-480.1117769171
 10
700.8799893959
 20
-483.539793936
 10
698.4963885062
 20
-486.8953367651
 10
695.7877571548
 20
-490.1676565891
 10
692.7627719047
 20
-493.3462711812
 10
689.4311226955
 20
-496.4209984804
 10
685.803481804
 20
-499.3819892084
 10
681.8914696577
 20
-502.2197584191
 10
677.7076176108
 20
-504.9252158822
 10
673.2653278029
 20
-507.4896952019
 10
668.5788302272
 20
-509.9049815777
 10
663.6631371486
 20
-512.1633381193
 10
658.5339950138
 20
-514.2575306298
 10
653.2078340114
 20
-516.1808507793
 10
647.7017154409
 20
-517.9271375934
 10
642.0332770599
 20
-519.4907971891
 10
636.2206765855
 20
-520.8668206933
 10
630.2825335294
 20
-522.0508002878
 10
624.237869554
 20
-523.0389433291
 10
618.1060475402
 20
-523.828084497
 10
611.9067095627
 20
-524.4156959346
 10
605.6597139699
 20
-524.7998953453
 10
599.385071772
 20
-524.9794520224
 10
593.1028825396
 20
-524.9537907919
 10
586.8332700187
 20
-524.7229938544
 10
580.5963176684
 20
-524.2878005221
 10
574.4120043273
 20
-523.6496048503
 10
568.3001402156
 20
-522.8104511724
 10
562.2803034764
 20
-521.7730275504
 10
556.3717774618
 20
-520.5406571649
 10
550.5934889618
 20
-519.1172876699
 10
544.9639475765
 20
-517.507478547
 10
539.5011864242
 20
-515.7163865001
 10
534.2227043756
 20
-513.7497489369
 10
529.1454100001
 20
-511.6138655906
 10
524.2855674023
 20
-509.3155783394
 10
519.6587441232
 20
-506.8622492901
 10
515.2797612725
 20
-504.2617371955
 10
511.1626460526
 20
-501.5223722796
 10
507.3205868246
 20
-498.6529295542
 10
503.7658908625
 20
-495.6626007095
 10
500.5099449292
 20
-492.5609646701
 10
497.5631788012
 20
-489.3579569114
 10
494.9350318586
 20
-486.0638376329
 10
492.6339228484
 20
-482.6891588918
 10
490.6672229166
 20
-479.2447308013
 10
489.0412319959
 20
-475.7415869031
 10
487.7611586254
 20
-472.1909488233
 10
486.8311032661
 20
-468.604190326
 10
486.2540451657
 20
-464.9928008799
 10
486.0318328152
 20
-461.3683488543
 10
486.1651780278
 20
-457.7424444617
 10
486.6536536585
 20
-454.1267025669
 10
487.4956949727
 20
-450.5327054813
 10
488.6886046582
 20
-446.9719658611
 10
490.2285614656
 20
-443.4558898287
 10
492.1106324489
 20
-439.9957404357
 10
494.3287887676
 20
-436.6026015838
 10
496.875924998
 20
-433.2873425195
 10
499.7438818951
 20
-430.0605830172
 10
502.9234725282
 20
-426.9326593604
 10
506.4045117099
 20
-423.9135912315
 10
510.1758486224
 20
-421.0130496159
 10
514.2254025365
 20
-418.2403258229
 10
518.5402015102
 20
-415.6043017226
  0
SPLINE
  5
122
330
1F
100
AcDbEntity
  8
0
  6
Continuous
 62
     7
370
    25
100
AcDbSpline
210
0.0
220
0.0
230
1.0
 70
     8
 71
     3
 72
    17
 73
    13
 74
     0
 42
0.00000001
 43
0.00000001
 40
0.0
 40
0.0
 40
0.0
 40
0.0
 40
0.0718899578690544
 40
0.1793330793628819
 40
0.286630681932562
 40
0.3937771130471135
 40
0.5010017050484895
 40
0.608412250926694
 40
0.7158269791431234
 40
0.8230565926035972
 40
0.930201000124094
 40
1.0
 40
1.0
 40
1.0
 40
1.0
 10
515.1602670588737
 20
-413.4690285992248
 30
0.0
 10
515.41238212035
 20
-413.6149537591982
 30
0.0
 10
516.041295694213
 20
-413.9789713364823
 30
0.0
 10
517.4394397147315
 20
-413.7474012771603
 30
0.0
 10
519.1123135581511
 20
-412.8936513411994
 30
0.0
 10
520.7693684119035
 20
-411.4214455117047
 30
0.0
 10
522.1978959131662
 20
-409.5230337982945
 30
0.0
 10
523.2244888305056
 20
-407.3932438350625
 30
0.0
 10
523.7187960453539
 20
-405.2560960141336
 30
0.0
 10
523.5954343486118
 20
-403.3827086774154
 30
0.0
 10
523.0231907223217
 20
-402.0354024358548
 30
0.0
 10
522.3398927204287
 20
-401.6501435624496
 30
0.0
 10
522.070351640311
 20
-401.4981702029857
 30
0.0
  0
LWPOLYLINE
  5
123
330
1F
100
AcDbEntity
  8
0
  6
Continuous
 62
     7
370
    25
100
AcDbPolyline
 90
      101
 70
   128
 43
0.0
 10
533.3894439152
 20
-424.1765868967
 10
529.5190579552
 20
-426.5559026951
 10
525.9151031081
 20
-429.0708179636
 10
522.5918025372
 20
-431.7114074806
 10
519.5622717916
 20
-434.4672500458
 10
516.838467045
 20
-437.3274696075
 10
514.4311379104
 20
-440.2807781858
 10
512.3497850161
 20
-443.315520421
 10
510.602622511
 20
-446.419719572
 10
509.1965456475
 20
-449.5811247828
 10
508.1371035684
 20
-452.7872594315
 10
507.4284774077
 20
-456.0254703692
 10
507.073463789
 20
-459.2829778569
 10
507.073463789
 20
-462.5469260006
 10
507.4284774077
 20
-465.8044334883
 10
508.1371035684
 20
-469.0426444261
 10
509.1965456475
 20
-472.2487790747
 10
510.602622511
 20
-475.4101842855
 10
512.3497850161
 20
-478.5143834365
 10
514.4311379104
 20
-481.5491256717
 10
516.838467045
 20
-484.5024342501
 10
519.5622717916
 20
-487.3626538117
 10
522.5918025372
 20
-490.1184963769
 10
525.9151031081
 20
-492.759085894
 10
529.5190579552
 20
-495.2740011625
 10
533.3894439152
 20
-497.6533169608
 10
537.5109863428
 20
-499.8876432165
 10
541.8674193932
 20
-501.9681620646
 10
546.4415502153
 20
-503.8866626478
 10
551.2153268044
 20
-505.6355735206
 10
556.1699092454
 20
-507.2079925309
 10
561.2857440648
 20
-508.5977140593
 10
566.5426413999
 20
-509.7992535097
 10
571.9198546784
 20
-510.8078689549
 10
577.3961624963
 20
-511.6195798505
 10
582.9499523683
 20
-512.2311827444
 10
588.5593060233
 20
-512.6402639194
 10
594.2020859049
 20
-512.8452089191
 10
599.856022539
 20
-512.8452089191
 10
605.4988024206
 20
-512.6402639194
 10
611.1081560756
 20
-512.2311827444
 10
616.6619459476
 20
-511.6195798505
 10
622.1382537655
 20
-510.8078689549
 10
627.515467044
 20
-509.7992535097
 10
632.7723643791
 20
-508.5977140593
 10
637.8881991985
 20
-507.2079925309
 10
642.8427816395
 20
-505.6355735206
 10
647.6165582286
 20
-503.8866626478
 10
652.1906890507
 20
-501.9681620646
 10
656.5471221011
 20
-499.8876432165
 10
660.6686645287
 20
-497.6533169608
 10
664.5390504887
 20
-495.2740011625
 10
668.1430053358
 20
-492.759085894
 10
671.4663059067
 20
-490.1184963769
 10
674.4958366523
 20
-487.3626538117
 10
677.2196413989
 20
-484.5024342501
 10
679.6269705335
 20
-481.5491256717
 10
681.7083234278
 20
-478.5143834365
 10
683.4554859329
 20
-475.4101842855
 10
684.8615627964
 20
-472.2487790747
 10
685.9210048755
 20
-469.0426444261
 10
686.6296310362
 20
-465.8044334883
 10
686.9846446549
 20
-462.5469260006
 10
686.9846446549
 20
-459.2829778569
 10
686.6296310362
 20
-456.0254703692
 10
685.9210048755
 20
-452.7872594315
 10
684.8615627964
 20
-449.5811247828
 10
683.4554859329
 20
-446.419719572
 10
681.7083234278
 20
-443.315520421
 10
679.6269705335
 20
-440.2807781858
 10
677.2196413989
 20
-437.3274696075
 10
674.4958366523
 20
-434.4672500458
 10
671.4663059067
 20
-431.7114074806
 10
668.1430053358
 20
-429.0708179636
 10
664.5390504887
 20
-426.5559026951
 10
660.6686645287
 20
-424.1765868967
 10
656.5471221011
 20
-421.942260641
 10
652.1906890507
 20
-419.8617417929
 10
647.6165582286
 20
-417.9432412098
 10
642.8427816395
 20
-416.1943303369
 10
637.8881991985
 20
-414.6219113266
 10
632.7723643791
 20
-413.2321897982
 10
627.515467044
 20
-412.0306503478
 10
622.1382537655
 20
-411.0220349026
 10
616.6619459476
 20
-410.2103240071
 10
611.1081560756
 20
-409.5987211131
 10
605.4988024206
 20
-409.1896399381
 10
599.856022539
 20
-408.9846949384
 10
594.2020859049
 20
-408.9846949384
 10
588.5593060233
 20
-409.1896399381
 10
582.9499523683
 20
-409.5987211131
 10
577.3961624963
 20
-410.2103240071
 10
571.9198546784
 20
-411.0220349026
 10
566.5426413999
 20
-412.0306503478
 10
561.2857440648
 20
-413.2321897982
 10
556.1699092454
 20
-414.6219113266
 10
551.2153268044
 20
-416.1943303369
 10
546.4415502153
 20
-417.9432412098
 10
541.8674193932
 20
-419.8617417929
 10
537.5109863428
 20
-421.942260641
 10
533.3894439152
 20
-424.1765868967
  0
LWPOLYLINE
  5
124
330
1F
100
AcDbEntity
  8
0
  6
Continuous
 62
     7
370
    25
100
AcDbPolyline
 90
      112
 70
   128
 43
0.0
 10
606.1152739355
 20
-120.9025857727
 10
609.380900894
 20
-122.7883813442
 10
612.8874905226
 20
-124.8132798165
 10
616.6238101574
 20
-126.9707948296
 10
620.5778912404
 20
-129.2540152122
 10
624.7370676577
 20
-131.6556271213
 10
629.0880163134
 20
-134.1679374698
 10
633.6167998072
 20
-136.7828985703
 10
638.3089110803
 20
-139.492133914
 10
643.1493198857
 20
-142.2869650034
 10
648.1225209347
 20
-145.1584391519
 10
653.2125835652
 20
-148.0973581621
 10
658.4032027719
 20
-151.0943077905
 10
663.6777514368
 20
-154.1396879038
 10
669.0193335902
 20
-157.2237432315
 10
674.4108385342
 20
-160.3365946146
 10
679.834995653
 20
-163.4682706517
 10
685.2744297362
 20
-166.6087396402
 10
690.7117166366
 20
-169.7479417112
 10
696.1294390849
 20
-172.8758210542
 10
701.5102424828
 20
-175.9823581286
 10
706.836890495
 20
-179.0576017595
 10
712.092320262
 20
-182.0917010146
 10
717.2596970577
 20
-185.0749367593
 10
722.3224682167
 20
-187.99775279
 10
727.2644161564
 20
-190.8507864459
 10
732.0697103278
 20
-193.6248986
 10
736.722957925
 20
-196.3112029348
 10
741.209253193
 20
-198.9010944076
 10
745.5142251757
 20
-201.3862768153
 10
749.6240837499
 20
-203.7587893695
 10
753.5256637996
 20
-206.011032197
 10
757.2064673877
 20
-208.1357906852
 10
760.6547037906
 20
-210.1262585921
 10
763.8593272675
 20
-211.9760598489
 10
766.8100724433
 20
-213.6792689844
 10
769.4974871917
 20
-215.2304301064
 10
771.9129629131
 20
-216.6245743782
 10
774.0487621104
 20
-217.8572359353
 10
775.898043175
 20
-218.9244661911
 10
777.4548823021
 20
-219.8228464854
 10
778.7142924666
 20
-220.5494990353
 10
779.6722393981
 20
-221.1020961536
 10
780.3256545038
 20
-221.4788677051
 10
780.6724446982
 20
-221.678606777
 10
780.7114991075
 20
-221.7006735448
 10
780.4426926289
 20
-221.544997322
 10
779.8668863305
 20
-221.2120767864
 10
778.9859246935
 20
-220.702978383
 10
777.8026297035
 20
-220.0193329073
 10
776.3207918113
 20
-219.1633302819
 10
774.5451577902
 20
-218.1377125414
 10
772.4814155313
 20
-216.9457650485
 10
770.1361758234
 20
-215.5913059703
 10
767.5169511761
 20
-214.0786740477
 10
764.6321317557
 20
-212.4127146968
 10
761.4909585085
 20
-210.5987644875
 10
758.1034935593
 20
-208.6426340492
 10
754.4805879797
 20
-206.5505894576
 10
750.6338470284
 20
-204.329332162
 10
746.5755929764
 20
-201.9859775193
 10
742.3188256349
 20
-199.5280320008
 10
737.877180713
 20
-196.9633691471
 10
733.2648861384
 20
-194.3002043464
 10
728.4967164812
 20
-191.5470685186
 10
723.5879456261
 20
-188.7127807876
 10
718.5542978463
 20
-185.8064202315
 10
713.4118974329
 20
-182.8372967994
 10
708.1772170449
 20
-179.8149214887
 10
702.8670249416
 20
-176.7489758788
 10
697.4983312693
 20
-173.6492811177
 10
692.0883335723
 20
-170.5257664623
 10
686.6543617042
 20
-167.3884374716
 10
681.2138223152
 20
-164.2473439562
 10
675.784143093
 20
-161.1125477857
 10
670.3827169371
 20
-157.9940906571
 10
665.026846244
 20
-154.9019619289
 10
659.733687482
 20
-151.8460666215
 10
654.5201962345
 20
-148.836193689
 10
649.4030728857
 20
-145.8819846616
 10
644.3987091243
 20
-142.9929027616
 10
639.5231354362
 20
-140.1782025892
 10
634.7919697537
 20
-137.4469004777
 10
630.2203674269
 20
-134.8077456111
 10
625.8229726762
 20
-132.2691919982
 10
621.6138716828
 20
-129.8393713914
 10
617.606547466
 20
-127.5260672387
 10
613.8138366935
 20
-125.3366897508
 10
610.2478885612
 20
-123.2782521636
 10
606.920125876
 20
-121.3573482734
 10
603.8412084651
 20
-119.5801313145
 10
601.0209990292
 20
-117.9522942486
 10
598.4685315492
 20
-116.4790515285
 10
596.1919823482
 20
-115.1651223949
 10
594.1986438993
 20
-114.0147157587
 10
592.4949014668
 20
-113.0315167194
 10
591.0862126511
 20
-112.2186747599
 10
589.9770899073
 20
-111.578793658
 10
589.1710860899
 20
-111.1139231457
 10
588.6707830721
 20
-110.8255523436
 10
588.4777834753
 20
-110.7146049901
 10
588.5927055354
 20
-110.7814364832
 10
589.0151811224
 20
-111.0258327413
 10
589.7438569195
 20
-111.4470108897
 10
590.7763987587
 20
-112.0436217677
 10
592.109499097
 20
-112.8137542508
 10
593.7388876122
 20
-113.7549413725
 10
595.6593448816
 20
-114.8641682267
 10
597.8647191017
 20
-116.1378816253
 10
600.3479457939
 20
-117.5720014805
 10
603.1010704346
 20
-119.1619338739
 10
606.1152739355
 20
-120.9025857727
  0
SPLINE
  5
125
330
1F
100
AcDbEntity
  8
0
  6
Continuous
 62
     7
370
    25
100
AcDbSpline
210
0.0
220
0.0
230
1.0
 70
     8
 71
     3
 72
    17
 73
    13
 74
     0
 42
0.00000001
 43
0.00000001
 40
0.0
 40
0.0
 40
0.0
 40
0.0
 40
0.0720550808891224
 40
0.179200071966719
 40
0.2864898706832065
 40
0.3939313991007974
 40
0.501294596442323
 40
0.6084710145796133
 40
0.7156439937741377
 40
0.8230018788779031
 40
0.9304447963741687
 40
1.0
 40
1.0
 40
1.0
 40
1.0
 10
597.6605610406101
 20
-135.5503086239727
 30
0.0
 10
597.9255248788916
 20
-135.7032393339991
 30
0.0
 10
598.584486582948
 20
-136.0835760695144
 30
0.0
 10
600.0551871940735
 20
-135.8944141958152
 30
0.0
 10
601.7872167785299
 20
-135.0768177488112
 30
0.0
 10
603.4637097014505
 20
-133.6133356341848
 30
0.0
 10
604.8586335208902
 20
-131.6919677321872
 30
0.0
 10
605.8123520840555
 20
-129.5221280739447
 30
0.0
 10
606.2289389142696
 20
-127.3436647592124
 30
0.0
 10
606.0589296915327
 20
-125.4426602976901
 30
0.0
 10
605.4834490650187
 20
-124.0922104288528
 30
0.0
 10
604.8287696087245
 20
-123.7244013960251
 30
0.0
 10
604.5714992908054
 20
-123.5798629567943
 30
0.0
  0
LWPOLYLINE
  5
126
330
1F
100
AcDbEntity
  8
0
  6
Continuous
 62
     7
370
    25
100
AcDbPolyline
 90
      101
 70
   128
 43
0.0
 10
620.9645163404
 20
-129.4748709468
 10
618.2645211954
 20
-127.9156666622
 10
615.8263381655
 20
-126.5076053873
 10
613.6595896451
 20
-125.2562440964
 10
611.7728268008
 20
-124.1665213411
 10
610.1734958235
 20
-123.2427377592
 10
608.867908542
 20
-122.4885391023
 10
607.8612175128
 20
-121.9069018481
 10
607.1573956854
 20
-121.5001214531
 10
606.759220723
 20
-121.2698032937
 10
606.6682640404
 20
-121.2168563303
 10
606.884884602
 20
-121.3414895205
 10
607.4082275054
 20
-121.6432109941
 10
608.2362273553
 20
-122.1208299941
 10
609.3656164144
 20
-122.7724615767
 10
610.7919375003
 20
-123.5955340497
 10
612.5095615752
 20
-124.5867991219
 10
614.5117099615
 20
-125.7423447232
 10
616.7904810943
 20
-127.0576104428
 10
619.336881705
 20
-128.5274055279
 10
622.1408623137
 20
-130.1459293688
 10
625.19135689
 20
-131.9067943913
 10
628.4763265254
 20
-133.8030512657
 10
631.9828069455
 20
-135.8272163322
 10
635.6969596741
 20
-137.9713011363
 10
639.6041266472
 20
-140.2268439547
 10
643.6888880617
 20
-142.5849431903
 10
647.9351232305
 20
-145.0362925029
 10
652.3260742034
 20
-147.5712175365
 10
656.8444119028
 20
-150.1797141002
 10
661.4723045141
 20
-152.8514876497
 10
666.1914878594
 20
-155.5759939155
 10
670.9833374781
 20
-158.342480516
 10
675.8289421289
 20
-161.1400293925
 10
680.709178424
 20
-163.9575998977
 10
685.6047863003
 20
-166.784072368
 10
690.4964450301
 20
-169.6082920078
 10
695.3648494711
 20
-172.4191129126
 10
700.1907862553
 20
-175.2054420563
 10
704.9552096149
 20
-177.9562830707
 10
709.6393165476
 20
-180.6607796432
 10
714.2246210232
 20
-183.3082583613
 10
718.6930269398
 20
-185.888270836
 10
723.0268995407
 20
-188.3906349368
 10
727.2091350107
 20
-190.8054749758
 10
731.223227977
 20
-193.1232606826
 10
735.0533366487
 20
-195.3348448159
 10
738.6843453365
 20
-197.4314992636
 10
742.1019241081
 20
-199.4049494883
 10
745.2925853413
 20
-201.2474071837
 10
748.243736954
 20
-202.9516010109
 10
750.9437320989
 20
-204.5108052954
 10
753.3819151288
 20
-205.9188665704
 10
755.5486636492
 20
-207.1702278612
 10
757.4354264935
 20
-208.2599506166
 10
759.0347574708
 20
-209.1837341985
 10
760.3403447523
 20
-209.9379328554
 10
761.3470357816
 20
-210.5195701096
 10
762.050857609
 20
-210.9263505046
 10
762.4490325713
 20
-211.156668664
 10
762.5399892539
 20
-211.2096156274
 10
762.3233686923
 20
-211.0849824372
 10
761.8000257889
 20
-210.7832609636
 10
760.9720259391
 20
-210.3056419635
 10
759.8426368799
 20
-209.654010381
 10
758.416315794
 20
-208.830937908
 10
756.6986917192
 20
-207.8396728358
 10
754.6965433328
 20
-206.6841272345
 10
752.4177722
 20
-205.3688615149
 10
749.8713715894
 20
-203.8990664297
 10
747.0673909806
 20
-202.2805425889
 10
744.0168964044
 20
-200.5196775664
 10
740.731926769
 20
-198.623420692
 10
737.2254463488
 20
-196.5992556255
 10
733.5112936202
 20
-194.4551708214
 10
729.6041266472
 20
-192.199628003
 10
725.5193652326
 20
-189.8415287673
 10
721.2731300638
 20
-187.3901794548
 10
716.8821790909
 20
-184.8552544212
 10
712.3638413915
 20
-182.2467578575
 10
707.7359487802
 20
-179.574984308
 10
703.0167654349
 20
-176.8504780422
 10
698.2249158162
 20
-174.0839914417
 10
693.3793111654
 20
-171.2864425652
 10
688.4990748704
 20
-168.46887206
 10
683.6034669941
 20
-165.6423995897
 10
678.7118082643
 20
-162.8181799499
 10
673.8434038232
 20
-160.0073590451
 10
669.017467039
 20
-157.2210299014
 10
664.2530436794
 20
-154.4701888869
 10
659.5689367467
 20
-151.7656923145
 10
654.9836322711
 20
-149.1182135964
 10
650.5152263545
 20
-146.5382011217
 10
646.1813537536
 20
-144.0358370209
 10
641.9991182836
 20
-141.6209969819
 10
637.9850253173
 20
-139.3032112751
 10
634.1549166456
 20
-137.0916271417
 10
630.5239079578
 20
-134.9949726941
 10
627.1063291863
 20
-133.0215224694
 10
623.915667953
 20
-131.179064774
 10
620.9645163404
 20
-129.4748709468
  0
LWPOLYLINE
  5
127
330
1F
100
AcDbEntity
  8
0
  6
Continuous
 62
     7
370
    25
100
AcDbPolyline
 90
       29
 70
   128
 43
0.0
 10
502.9838523241
 20
-404.1732611565
 10
503.1079528273
 20
-402.8297374924
 10
503.4740314195
 20
-401.4103003237
 10
504.0637313914
 20
-399.9861261573
 10
504.8474827242
 20
-398.6286290325
 10
505.7859848532
 20
-397.4058795236
 10
506.8321773629
 20
-396.3791913968
 10
507.9335997924
 20
-395.6000470819
 10
509.0350222219
 20
-395.1075161281
 10
510.0812147317
 20
-394.9262960942
 10
511.0197168607
 20
-395.0654741093
 10
511.8034681934
 20
-395.5180712067
 10
512.3931681654
 20
-396.261392278
 10
512.7592467575
 20
-397.2581641007
 10
512.8833472607
 20
-398.4584043737
 10
512.7592467575
 20
-399.8019280378
 10
512.3931681654
 20
-401.2213652064
 10
511.8034681934
 20
-402.6455393729
 10
511.0197168607
 20
-404.0030364977
 10
510.0812147317
 20
-405.2257860065
 10
509.0350222219
 20
-406.2524741333
 10
507.9335997924
 20
-407.0316184483
 10
506.8321773629
 20
-407.524149402
 10
505.7859848532
 20
-407.705369436
 10
504.8474827242
 20
-407.5661914208
 10
504.0637313914
 20
-407.1135943234
 10
503.4740314195
 20
-406.3702732522
 10
503.1079528273
 20
-405.3735014294
 10
502.9838523241
 20
-404.1732611565
  0
LWPOLYLINE
  5
128
330
1F
100
AcDbEntity
  8
0
  6
Continuous
 62
     7
370
    25
100
AcDbPolyline
 90
       24
 70
   128
 43
0.0
 10
504.3980658865
 20
-403.3568530446
 10
504.5291730744
 20
-402.1796661033
 10
504.9127710178
 20
-400.938412595
 10
505.520410012
 20
-399.7251506141
 10
506.3070242526
 20
-398.6298622515
 10
507.2142741599
 20
-397.7337800344
 10
508.1748731587
 20
-397.1033622815
 10
509.1175780157
 20
-396.7853641936
 10
509.9724726242
 20
-396.8033702342
 10
510.6761533619
 20
-397.1560449775
 10
511.1764314478
 20
-397.8172321513
 10
511.4362035448
 20
-398.7378945275
 10
511.4362035448
 20
-399.8497507896
 10
511.1764314478
 20
-401.0703396449
 10
510.6761533619
 20
-402.3091356018
 10
509.9724726242
 20
-403.4742628314
 10
509.1175780157
 20
-404.4793091772
 10
508.1748731587
 20
-405.2497349494
 10
507.2142741599
 20
-405.728401193
 10
506.3070242526
 20
-405.8798074225
 10
505.520410012
 20
-405.6927245304
 10
504.9127710178
 20
-405.181027599
 10
504.5291730744
 20
-404.3826668489
 10
504.3980658865
 20
-403.3568530446
  0
LWPOLYLINE
  5
129
330
1F
100
AcDbEntity
  8
0
  6
Continuous
 62
     7
370
    25
100
AcDbPolyline
 90
       29
 70
   128
 43
0.0
 10
585.5589247494
 20
-126.2972073378
 10
585.6830252526
 20
-124.9536836737
 10
586.0491038447
 20
-123.5342465051
 10
586.6388038167
 20
-122.1100723386
 10
587.4225551494
 20
-120.7525752138
 10
588.3610572784
 20
-119.529825705
 10
589.4072497882
 20
-118.5031375782
 10
590.5086722177
 20
-117.7239932632
 10
591.6100946472
 20
-117.2314623095
 10
592.6562871569
 20
-117.0502422756
 10
593.5947892859
 20
-117.1894202907
 10
594.3785406186
 20
-117.6420173881
 10
594.9682405906
 20
-118.3853384593
 10
595.3343191828
 20
-119.3821102821
 10
595.458419686
 20
-120.5823505551
 10
595.3343191828
 20
-121.9258742191
 10
594.9682405906
 20
-123.3453113878
 10
594.3785406186
 20
-124.7694855542
 10
593.5947892859
 20
-126.126982679
 10
592.6562871569
 20
-127.3497321879
 10
591.6100946472
 20
-128.3764203147
 10
590.5086722177
 20
-129.1555646296
 10
589.4072497882
 20
-129.6480955834
 10
588.3610572784
 20
-129.8293156173
 10
587.4225551494
 20
-129.6901376022
 10
586.6388038167
 20
-129.2375405048
 10
586.0491038447
 20
-128.4942194336
 10
585.6830252526
 20
-127.4974476108
 10
585.5589247494
 20
-126.2972073378
  0
LWPOLYLINE
  5
12A
330
1F
100
AcDbEntity
  8
0
  6
Continuous
 62
     7
370
    25
100
AcDbPolyline
 90
       24
 70
   128
 43
0.0
 10
586.9731383117
 20
-125.480799226
 10
587.1042454996
 20
-124.3036122846
 10
587.487843443
 20
-123.0623587763
 10
588.0954824372
 20
-121.8490967955
 10
588.8820966778
 20
-120.7538084329
 10
589.7893465851
 20
-119.8577262158
 10
590.7499455839
 20
-119.2273084629
 10
591.6926504409
 20
-118.909310375
 10
592.5475450494
 20
-118.9273164156
 10
593.2512257872
 20
-119.2799911589
 10
593.751503873
 20
-119.9411783326
 10
594.01127597
 20
-120.8618407089
 10
594.01127597
 20
-121.9736969709
 10
593.751503873
 20
-123.1942858262
 10
593.2512257872
 20
-124.4330817832
 10
592.5475450494
 20
-125.5982090128
 10
591.6926504409
 20
-126.6032553586
 10
590.7499455839
 20
-127.3736811308
 10
589.7893465851
 20
-127.8523473744
 10
588.8820966778
 20
-128.0037536038
 10
588.0954824372
 20
-127.8166707118
 10
587.487843443
 20
-127.3049737804
 10
587.1042454996
 20
-126.5066130303
 10
586.9731383117
 20
-125.480799226
  0
LWPOLYLINE
  5
12B
330
1F
100
AcDbEntity
  8
0
  6
Continuous
 62
     1
370
    25
100
AcDbPolyline
 90
       43
 70
   128
 43
0.0
 10
518.5402015102
 20
-310.8061777166
 10
523.1064239416
 20
-308.315297289
 10
527.9094428436
 20
-305.9775395749
 10
532.9338726987
 20
-303.8003931172
 10
538.1636187434
 20
-301.7908319723
 10
543.5819285243
 20
-299.9552933704
 10
549.1714455619
 20
-298.2996570949
 10
554.9142649478
 20
-296.8292266481
 10
560.7919907004
 20
-295.5487122618
 10
566.785794692
 20
-294.4622158098
 10
572.8764769615
 20
-293.5732176678
 10
579.0445272174
 20
-292.8845655647
 10
585.2701873351
 20
-292.398465461
 10
591.5335146485
 20
-292.1164744817
 10
597.8144458319
 20
-292.039495929
 10
604.0928611692
 20
-292.1677763884
 10
610.3486490033
 20
-292.500904939
 10
616.5617701597
 20
-293.0378144695
 10
622.7123221384
 20
-293.7767850968
 10
628.7806028671
 20
-294.7154496753
 10
634.7471738132
 20
-295.8508013793
 10
640.5929222511
 20
-297.179203335
 10
646.2991224863
 20
-298.6964002705
 10
651.8474958392
 20
-300.3975321467
 10
657.2202691972
 20
-302.2771497252
 10
662.4002319474
 20
-304.3292320242
 10
667.3707911076
 20
-306.5472056057
 10
672.1160244782
 20
-308.9239656314
 10
676.6207316463
 20
-311.4518986225
 10
680.8704826766
 20
-314.1229068476
 10
684.8516643355
 20
-316.9284342619
 10
688.5515236979
 20
-319.8594939155
 10
691.9582089988
 20
-322.9066967406
 10
695.0608075981
 20
-326.060281628
 10
697.8493809372
 20
-329.3101466944
 10
700.314996375
 20
-332.6458816423
 10
702.449755802
 20
-336.0568011071
 10
704.24682094
 20
-339.5319788853
 10
705.7004352478
 20
-343.060282935
 10
706.8059423604
 20
-346.6304110345
 10
707.5598010053
 20
-350.2309269872
 10
707.9595963459
 20
-353.850297255
 10
708.0290542219
 20
-356.1168279228
  0
LWPOLYLINE
  5
12C
330
1F
100
AcDbEntity
  8
0
  6
Continuous
 62
     1
370
    25
100
AcDbPolyline
 90
       15
 70
   128
 43
0.0
 10
486.0290542219
 20
-356.1168279228
 10
486.1651780278
 20
-352.9443204557
 10
486.6536536585
 20
-349.3285785609
 10
487.4956949727
 20
-345.7345814754
 10
488.6886046582
 20
-342.1738418551
 10
490.2285614656
 20
-338.6577658227
 10
492.1106324489
 20
-335.1976164297
 10
494.3287887676
 20
-331.8044775778
 10
496.875924998
 20
-328.4892185135
 10
499.7438818951
 20
-325.2624590113
 10
502.9234725282
 20
-322.1345353544
 10
506.4045117099
 20
-319.1154672255
 10
510.1758486224
 20
-316.21492561
 10
514.2254025365
 20
-313.4422018169
 10
518.5402015102
 20
-310.8061777166
  0
LWPOLYLINE
  5
12D
330
1F
100
AcDbEntity
  8
0
  6
Continuous
 62
     1
370
    25
100
AcDbPolyline
 90
       46
 70
   128
 43
0.0
 10
541.9432677843
 20
-232.0517605239
 10
545.2088947429
 20
-233.9375560953
 10
548.7154843714
 20
-235.9624545677
 10
552.4518040063
 20
-238.1199695808
 10
556.4058850893
 20
-240.4031899634
 10
560.5650615065
 20
-242.8048018725
 10
564.9160101622
 20
-245.317112221
 10
569.444793656
 20
-247.9320733215
 10
574.1369049291
 20
-250.6413086652
 10
578.9773137345
 20
-253.4361397546
 10
583.9505147836
 20
-256.3076139031
 10
589.0405774141
 20
-259.2465329133
 10
594.2311966208
 20
-262.2434825417
 10
599.5057452856
 20
-265.288862655
 10
604.847327439
 20
-268.3729179827
 10
610.238832383
 20
-271.4857693658
 10
615.6629895019
 20
-274.6174454028
 10
621.1024235851
 20
-277.7579143914
 10
626.5397104854
 20
-280.8971164624
 10
631.9574329337
 20
-284.0249958054
 10
637.3382363317
 20
-287.1315328797
 10
642.6648843439
 20
-290.2067765107
 10
647.9203141108
 20
-293.2408757658
 10
653.0876909066
 20
-296.2241115105
 10
658.1504620655
 20
-299.1469275412
 10
663.0924100052
 20
-301.9999611971
 10
667.8977041766
 20
-304.7740733512
 10
672.5509517738
 20
-307.460377686
 10
677.0372470419
 20
-310.0502691588
 10
681.3422190246
 20
-312.5354515665
 10
685.4520775988
 20
-314.9079641207
 10
689.3536576485
 20
-317.1602069482
 10
693.0344612365
 20
-319.2849654364
 10
696.4826976394
 20
-321.2754333433
 10
699.6873211163
 20
-323.1252346001
 10
702.6380662922
 20
-324.8284437356
 10
705.3254810406
 20
-326.3796048576
 10
707.7409567619
 20
-327.7737491294
 10
709.8767559592
 20
-329.0064106864
 10
711.7260370238
 20
-330.0736409423
 10
713.2828761509
 20
-330.9720212366
 10
714.5422863155
 20
-331.6986737865
 10
715.500233247
 20
-332.2512709048
 10
716.1536483527
 20
-332.6280424563
 10
716.500438547
 20
-332.8277815282
 10
716.5609402456
 20
-332.8624108522
  0
LWPOLYLINE
  5
12E
330
1F
100
AcDbEntity
  8
0
  6
Continuous
 62
     1
370
    25
100
AcDbPolyline
 90
       12
 70
   128
 43
0.0
 10
524.3033007465
 20
-221.8624106079
 10
524.4206993842
 20
-221.9306112344
 10
524.8431749712
 20
-222.1750074925
 10
525.5718507684
 20
-222.5961856409
 10
526.6043926075
 20
-223.1927965189
 10
527.9374929459
 20
-223.962929002
 10
529.566881461
 20
-224.9041161236
 10
531.4873387305
 20
-226.0133429778
 10
533.6927129506
 20
-227.2870563765
 10
536.1759396428
 20
-228.7211762317
 10
538.9290642835
 20
-230.3111086251
 10
541.9432677843
 20
-232.0517605239
  0
ENDSEC
  0
SECTION
  2
OBJECTS
  0
DICTIONARY
  5
C
330
0
100
AcDbDictionary
281
     1
  3
ACAD_GROUP
350
D
  3
ACAD_LAYOUT
350
1A
  3
ACAD_MLINESTYLE
350
17
  3
ACAD_PLOTSETTINGS
350
19
  3
ACAD_PLOTSTYLENAME
350
E
  3
ACAD_SCALELIST
350
47
  3
DWGPROPS
350
12F
  0
DICTIONARY
  5
D
102
{ACAD_REACTORS
330
C
102
}
330
C
100
AcDbDictionary
281
     1
  0
DICTIONARY
  5
1A
102
{ACAD_REACTORS
330
C
102
}
330
C
100
AcDbDictionary
281
     1
  3
Layout1
350
1E
  3
Layout2
350
26
  3
Model
350
22
  0
DICTIONARY
  5
17
102
{ACAD_REACTORS
330
C
102
}
330
C
100
AcDbDictionary
281
     1
  3
Standard
350
18
  0
DICTIONARY
  5
19
102
{ACAD_REACTORS
330
C
102
}
330
C
100
AcDbDictionary
281
     1
  0
ACDBDICTIONARYWDFLT
  5
E
102
{ACAD_REACTORS
330
C
102
}
330
C
100
AcDbDictionary
281
     1
  3
Normal
350
F
100
AcDbDictionaryWithDefault
340
F
  0
DICTIONARY
  5
47
102
{ACAD_REACTORS
330
C
102
}
330
C
100
AcDbDictionary
281
     1
  3
A0
350
48
  3
A1
350
49
  3
A2
350
4A
  3
A3
350
4B
  3
A4
350
4C
  3
A5
350
4D
  3
A6
350
4E
  3
A7
350
4F
  3
A8
350
50
  3
A9
350
51
  3
B0
350
52
  3
B1
350
53
  3
B2
350
54
  3
B3
350
55
  3
B4
350
56
  3
B5
350
57
  3
B6
350
58
  3
B7
350
59
  3
B8
350
5A
  3
B9
350
5B
  3
C0
350
5C
  3
C1
350
5D
  3
C2
350
5E
  3
C3
350
5F
  3
C4
350
60
  3
C5
350
61
  3
C6
350
62
  3
C7
350
63
  3
C8
350
64
  3
C9
350
65
  3
D0
350
66
  3
D1
350
67
  3
D2
350
68
  0
XRECORD
  5
12F
102
{ACAD_REACTORS
330
C
102
}
330
C
100
AcDbXrecord
280
     1
  1
DWGPROPS COOKIE
  2

  3

  4

  6

  7

  8
b.kav
  9

300
=
301
=
302
=
303
=
304
=
305
=
306
=
307
=
308
=
309
=
 40
0.0
 41
2459741.478213739
 42
2459741.478213924
  1

 90
        0
  0
LAYOUT
  5
1E
102
{ACAD_REACTORS
330
1A
102
}
330
1A
100
AcDbPlotSettings
  1

  2
none_device
  4

  6

 40
0.0
 41
0.0
 42
0.0
 43
0.0
 44
0.0
 45
0.0
 46
0.0
 47
0.0
 48
0.0
 49
0.0
140
0.0
141
0.0
142
1.0
143
1.0
 70
   688
 72
     1
 73
     0
 74
     5
  7

 75
    16
147
1.0
148
0.0
149
0.0
100
AcDbLayout
  1
Layout1
 70
     1
 71
     1
 10
0.0
 20
0.0
 11
420.0
 21
297.0
 12
0.0
 22
0.0
 32
0.0
 14
1.0000000000E+20
 24
1.0000000000E+20
 34
1.0000000000E+20
 15
-1.0000000000E+20
 25
-1.0000000000E+20
 35
-1.0000000000E+20
146
0.0
 13
0.0
 23
0.0
 33
0.0
 16
1.0
 26
0.0
 36
0.0
 17
0.0
 27
1.0
 37
0.0
 76
     0
330
1B
  0
LAYOUT
  5
26
102
{ACAD_REACTORS
330
1A
102
}
330
1A
100
AcDbPlotSettings
  1

  2
none_device
  4

  6

 40
0.0
 41
0.0
 42
0.0
 43
0.0
 44
0.0
 45
0.0
 46
0.0
 47
0.0
 48
0.0
 49
0.0
140
0.0
141
0.0
142
1.0
143
1.0
 70
   688
 72
     1
 73
     0
 74
     5
  7

 75
    16
147
1.0
148
0.0
149
0.0
100
AcDbLayout
  1
Layout2
 70
     1
 71
     2
 10
0.0
 20
0.0
 11
0.0
 21
0.0
 12
0.0
 22
0.0
 32
0.0
 14
0.0
 24
0.0
 34
0.0
 15
0.0
 25
0.0
 35
0.0
146
0.0
 13
0.0
 23
0.0
 33
0.0
 16
1.0
 26
0.0
 36
0.0
 17
0.0
 27
1.0
 37
0.0
 76
     0
330
23
  0
LAYOUT
  5
22
102
{ACAD_REACTORS
330
1A
102
}
330
1A
100
AcDbPlotSettings
  1

  2
none_device
  4
Letter_(8.50_x_11.00_Inches)
  6

 40
6.35
 41
6.35
 42
6.35000508
 43
6.35000508
 44
215.9
 45
279.4
 46
0.0
 47
0.0
 48
0.0
 49
0.0
140
0.0
141
0.0
142
1.0
143
1.0
 70
  1712
 72
     1
 73
     0
 74
     0
  7

 75
     0
147
1.0
148
0.0
149
0.0
100
AcDbLayout
  1
Model
 70
     1
 71
     0
 10
0.0
 20
0.0
 11
279.4
 21
215.9
 12
0.0
 22
0.0
 32
0.0
 14
0.0
 24
0.0
 34
0.0
 15
279.4
 25
215.9
 35
0.0
146
0.0
 13
0.0
 23
0.0
 33
0.0
 16
1.0
 26
0.0
 36
0.0
 17
0.0
 27
1.0
 37
0.0
 76
     0
330
1F
331
29
  0
MLINESTYLE
  5
18
102
{ACAD_REACTORS
330
17
102
}
330
17
100
AcDbMlineStyle
  2
Standard
 70
     0
  3

 62
   256
 51
90.0
 52
90.0
 71
     2
 49
0.5
 62
   256
  6
BYLAYER
 49
-0.5
 62
   256
  6
BYLAYER
  0
ACDBPLACEHOLDER
  5
F
102
{ACAD_REACTORS
330
E
102
}
330
E
  0
SCALE
  5
48
102
{ACAD_REACTORS
330
47
102
}
330
47
100
AcDbScale
 70
     0
300
1:1
140
1.0
141
1.0
290
     1
  0
SCALE
  5
49
102
{ACAD_REACTORS
330
47
102
}
330
47
100
AcDbScale
 70
     0
300
1:2
140
1.0
141
2.0
290
     0
  0
SCALE
  5
4A
102
{ACAD_REACTORS
330
47
102
}
330
47
100
AcDbScale
 70
     0
300
1:4
140
1.0
141
4.0
290
     0
  0
SCALE
  5
4B
102
{ACAD_REACTORS
330
47
102
}
330
47
100
AcDbScale
 70
     0
300
1:5
140
1.0
141
5.0
290
     0
  0
SCALE
  5
4C
102
{ACAD_REACTORS
330
47
102
}
330
47
100
AcDbScale
 70
     0
300
1:8
140
1.0
141
8.0
290
     0
  0
SCALE
  5
4D
102
{ACAD_REACTORS
330
47
102
}
330
47
100
AcDbScale
 70
     0
300
1:10
140
1.0
141
10.0
290
     0
  0
SCALE
  5
4E
102
{ACAD_REACTORS
330
47
102
}
330
47
100
AcDbScale
 70
     0
300
1:16
140
1.0
141
16.0
290
     0
  0
SCALE
  5
4F
102
{ACAD_REACTORS
330
47
102
}
330
47
100
AcDbScale
 70
     0
300
1:20
140
1.0
141
20.0
290
     0
  0
SCALE
  5
50
102
{ACAD_REACTORS
330
47
102
}
330
47
100
AcDbScale
 70
     0
300
1:30
140
1.0
141
30.0
290
     0
  0
SCALE
  5
51
102
{ACAD_REACTORS
330
47
102
}
330
47
100
AcDbScale
 70
     0
300
1:40
140
1.0
141
40.0
290
     0
  0
SCALE
  5
52
102
{ACAD_REACTORS
330
47
102
}
330
47
100
AcDbScale
 70
     0
300
1:50
140
1.0
141
50.0
290
     0
  0
SCALE
  5
53
102
{ACAD_REACTORS
330
47
102
}
330
47
100
AcDbScale
 70
     0
300
1:100
140
1.0
141
100.0
290
     0
  0
SCALE
  5
54
102
{ACAD_REACTORS
330
47
102
}
330
47
100
AcDbScale
 70
     0
300
2:1
140
2.0
141
1.0
290
     0
  0
SCALE
  5
55
102
{ACAD_REACTORS
330
47
102
}
330
47
100
AcDbScale
 70
     0
300
4:1
140
4.0
141
1.0
290
     0
  0
SCALE
  5
56
102
{ACAD_REACTORS
330
47
102
}
330
47
100
AcDbScale
 70
     0
300
8:1
140
8.0
141
1.0
290
     0
  0
SCALE
  5
57
102
{ACAD_REACTORS
330
47
102
}
330
47
100
AcDbScale
 70
     0
300
10:1
140
10.0
141
1.0
290
     0
  0
SCALE
  5
58
102
{ACAD_REACTORS
330
47
102
}
330
47
100
AcDbScale
 70
     0
300
100:1
140
100.0
141
1.0
290
     0
  0
SCALE
  5
59
102
{ACAD_REACTORS
330
47
102
}
330
47
100
AcDbScale
 70
     0
300
1/128" = 1'-0"
140
0.0078125
141
12.0
290
     0
  0
SCALE
  5
5A
102
{ACAD_REACTORS
330
47
102
}
330
47
100
AcDbScale
 70
     0
300
1/64" = 1'-0"
140
0.015625
141
12.0
290
     0
  0
SCALE
  5
5B
102
{ACAD_REACTORS
330
47
102
}
330
47
100
AcDbScale
 70
     0
300
1/32" = 1'-0"
140
0.03125
141
12.0
290
     0
  0
SCALE
  5
5C
102
{ACAD_REACTORS
330
47
102
}
330
47
100
AcDbScale
 70
     0
300
1/16" = 1'-0"
140
0.0625
141
12.0
290
     0
  0
SCALE
  5
5D
102
{ACAD_REACTORS
330
47
102
}
330
47
100
AcDbScale
 70
     0
300
3/32" = 1'-0"
140
0.09375
141
12.0
290
     0
  0
SCALE
  5
5E
102
{ACAD_REACTORS
330
47
102
}
330
47
100
AcDbScale
 70
     0
300
1/8" = 1'-0"
140
0.125
141
12.0
290
     0
  0
SCALE
  5
5F
102
{ACAD_REACTORS
330
47
102
}
330
47
100
AcDbScale
 70
     0
300
3/16" = 1'-0"
140
0.1875
141
12.0
290
     0
  0
SCALE
  5
60
102
{ACAD_REACTORS
330
47
102
}
330
47
100
AcDbScale
 70
     0
300
1/4" = 1'-0"
140
0.25
141
12.0
290
     0
  0
SCALE
  5
61
102
{ACAD_REACTORS
330
47
102
}
330
47
100
AcDbScale
 70
     0
300
3/8" = 1'-0"
140
0.375
141
12.0
290
     0
  0
SCALE
  5
62
102
{ACAD_REACTORS
330
47
102
}
330
47
100
AcDbScale
 70
     0
300
1/2" = 1'-0"
140
0.5
141
12.0
290
     0
  0
SCALE
  5
63
102
{ACAD_REACTORS
330
47
102
}
330
47
100
AcDbScale
 70
     0
300
3/4" = 1'-0"
140
0.75
141
12.0
290
     0
  0
SCALE
  5
64
102
{ACAD_REACTORS
330
47
102
}
330
47
100
AcDbScale
 70
     0
300
1" = 1'-0"
140
1.0
141
12.0
290
     0
  0
SCALE
  5
65
102
{ACAD_REACTORS
330
47
102
}
330
47
100
AcDbScale
 70
     0
300
1-1/2" = 1'-0"
140
1.5
141
12.0
290
     0
  0
SCALE
  5
66
102
{ACAD_REACTORS
330
47
102
}
330
47
100
AcDbScale
 70
     0
300
3" = 1'-0"
140
3.0
141
12.0
290
     0
  0
SCALE
  5
67
102
{ACAD_REACTORS
330
47
102
}
330
47
100
AcDbScale
 70
     0
300
6" = 1'-0"
140
6.0
141
12.0
290
     0
  0
SCALE
  5
68
102
{ACAD_REACTORS
330
47
102
}
330
47
100
AcDbScale
 70
     0
300
1'-0" = 1'-0"
140
12.0
141
12.0
290
     0
  0
ENDSEC
  0
EOF
